  0
SECTION
  2
HEADER
  9
$ACADVER
  1
AC1015
  9
$ACADMAINTVER
 70
     6
  9
$DWGCODEPAGE
  3
ANSI_932
  9
$INSBASE
 10
0.0
 20
0.0
 30
0.0
  9
$EXTMIN
 10
41.500654
 20
23.866933
 30
1.000000E+20
  9
$EXTMAX
 10
82.225472
 20
74.295551
 30
-1.000000E+20
  9
$LIMMIN
 10
41.500654
 20
23.866933
  9
$LIMMAX
 10
82.225472
 20
74.295551
  9
$ORTHOMODE
 70
     0
  9
$REGENMODE
 70
     1
  9
$FILLMODE
 70
     1
  9
$QTEXTMODE
 70
     0
  9
$MIRRTEXT
 70
     1
  9
$LTSCALE
 40
1.0
  9
$ATTMODE
 70
     1
  9
$TEXTSIZE
 40
0.2
  9
$TRACEWID
 40
0.05
  9
$TEXTSTYLE
  7
Standard
  9
$CLAYER
  8
0
  9
$CELTYPE
  6
Continuous
  9
$CECOLOR
 62
   256
  9
$CELTSCALE
 40
1.0
  9
$DISPSILH
 70
     0
  9
$DIMSCALE
 40
1.0
  9
$DIMASZ
 40
0.18
  9
$DIMEXO
 40
0.0625
  9
$DIMDLI
 40
0.38
  9
$DIMRND
 40
0.0
  9
$DIMDLE
 40
0.0
  9
$DIMEXE
 40
0.18
  9
$DIMTP
 40
0.0
  9
$DIMTM
 40
0.0
  9
$DIMTXT
 40
0.18
  9
$DIMCEN
 40
0.09
  9
$DIMTSZ
 40
0.0
  9
$DIMTOL
 70
     0
  9
$DIMLIM
 70
     0
  9
$DIMTIH
 70
     1
  9
$DIMTOH
 70
     1
  9
$DIMSE1
 70
     0
  9
$DIMSE2
 70
     0
  9
$DIMTAD
 70
     0
  9
$DIMZIN
 70
     0
  9
$DIMBLK
  1

  9
$DIMASO
 70
     1
  9
$DIMSHO
 70
     1
  9
$DIMPOST
  1

  9
$DIMAPOST
  1

  9
$DIMALT
 70
     0
  9
$DIMALTD
 70
     2
  9
$DIMALTF
 40
25.4
  9
$DIMLFAC
 40
1.0
  9
$DIMTOFL
 70
     0
  9
$DIMTVP
 40
0.0
  9
$DIMTIX
 70
     0
  9
$DIMSOXD
 70
     0
  9
$DIMSAH
 70
     0
  9
$DIMBLK1
  1

  9
$DIMBLK2
  1

  9
$DIMSTYLE
  2
Standard
  9
$DIMCLRD
 70
     0
  9
$DIMCLRE
 70
     0
  9
$DIMCLRT
 70
     0
  9
$DIMTFAC
 40
1.0
  9
$DIMGAP
 40
0.09
  9
$DIMJUST
 70
     0
  9
$DIMSD1
 70
     0
  9
$DIMSD2
 70
     0
  9
$DIMTOLJ
 70
     1
  9
$DIMTZIN
 70
     0
  9
$DIMALTZ
 70
     0
  9
$DIMALTTZ
 70
     0
  9
$DIMUPT
 70
     0
  9
$DIMDEC
 70
     4
  9
$DIMTDEC
 70
     4
  9
$DIMALTU
 70
     2
  9
$DIMALTTD
 70
     2
  9
$DIMTXSTY
  7
Standard
  9
$DIMAUNIT
 70
     0
  9
$DIMADEC
 70
     0
  9
$DIMALTRND
 40
0.0
  9
$DIMAZIN
 70
     0
  9
$DIMDSEP
 70
     0
  9
$DIMATFIT
 70
     3
  9
$DIMFRAC
 70
     0
  9
$DIMLDRBLK
  1

  9
$DIMLUNIT
 70
     2
  9
$DIMLWD
 70
     0
  9
$DIMLWE
 70
     0
  9
$DIMTMOVE
 70
     0
  9
$LUNITS
 70
     2
  9
$LUPREC
 70
     4
  9
$SKETCHINC
 40
0.1
  9
$FILLETRAD
 40
0.0
  9
$AUNITS
 70
     0
  9
$AUPREC
 70
     0
  9
$MENU
  1
acad
  9
$ELEVATION
 40
0.0
  9
$PELEVATION
 40
0.0
  9
$THICKNESS
 40
0.0
  9
$LIMCHECK
 70
     0
  9
$CHAMFERA
 40
0.0
  9
$CHAMFERB
 40
0.0
  9
$CHAMFERC
 40
0.0
  9
$CHAMFERD
 40
0.0
  9
$SKPOLY
 70
     0
  9
$TDCREATE
 40
0.000000000
  9
$TDUCREATE
 40
0.000000000
  9
$TDUPDATE
 40
0.000000000
  9
$TDUUPDATE
 40
0.000000000
  9
$TDINDWG
 40
0.0000000000
  9
$TDUSRTIMER
 40
0.0000000000
  9
$USRTIMER
 70
     1
  9
$ANGBASE
 50
0.0
  9
$ANGDIR
 70
     0
  9
$PDMODE
 70
     0
  9
$PDSIZE
 40
0.0
  9
$PLINEWID
 40
0.0
  9
$SPLFRAME
 70
     0
  9
$SPLINETYPE
 70
     6
  9
$SPLINESEGS
 70
     8
  9
$HANDSEED
  5
1C2
  9
$SURFTAB1
 70
     6
  9
$SURFTAB2
 70
     6
  9
$SURFTYPE
 70
     6
  9
$SURFU
 70
     6
  9
$SURFV
 70
     6
  9
$UCSBASE
  2

  9
$UCSNAME
  2

  9
$UCSORG
 10
0.0
 20
0.0
 30
0.0
  9
$UCSXDIR
 10
1.0
 20
0.0
 30
0.0
  9
$UCSYDIR
 10
0.0
 20
1.0
 30
0.0
  9
$UCSORTHOREF
  2

  9
$UCSORTHOVIEW
 70
     0
  9
$UCSORGTOP
 10
0.0
 20
0.0
 30
0.0
  9
$UCSORGBOTTOM
 10
0.0
 20
0.0
 30
0.0
  9
$UCSORGLEFT
 10
0.0
 20
0.0
 30
0.0
  9
$UCSORGRIGHT
 10
0.0
 20
0.0
 30
0.0
  9
$UCSORGFRONT
 10
0.0
 20
0.0
 30
0.0
  9
$UCSORGBACK
 10
0.0
 20
0.0
 30
0.0
  9
$PUCSBASE
  2

  9
$PUCSNAME
  2

  9
$PUCSORG
 10
0.0
 20
0.0
 30
0.0
  9
$PUCSXDIR
 10
1.0
 20
0.0
 30
0.0
  9
$PUCSYDIR
 10
0.0
 20
1.0
 30
0.0
  9
$PUCSORTHOREF
  2

  9
$PUCSORTHOVIEW
 70
     0
  9
$PUCSORGTOP
 10
0.0
 20
0.0
 30
0.0
  9
$PUCSORGBOTTOM
 10
0.0
 20
0.0
 30
0.0
  9
$PUCSORGLEFT
 10
0.0
 20
0.0
 30
0.0
  9
$PUCSORGRIGHT
 10
0.0
 20
0.0
 30
0.0
  9
$PUCSORGFRONT
 10
0.0
 20
0.0
 30
0.0
  9
$PUCSORGBACK
 10
0.0
 20
0.0
 30
0.0
  9
$USERI1
 70
     0
  9
$USERI2
 70
     0
  9
$USERI3
 70
     0
  9
$USERI4
 70
     0
  9
$USERI5
 70
     0
  9
$USERR1
 40
0.0
  9
$USERR2
 40
0.0
  9
$USERR3
 40
0.0
  9
$USERR4
 40
0.0
  9
$USERR5
 40
0.0
  9
$WORLDVIEW
 70
     1
  9
$SHADEDGE
 70
     3
  9
$SHADEDIF
 70
    70
  9
$TILEMODE
 70
     1
  9
$MAXACTVP
 70
    16
  9
$PINSBASE
 10
0.0
 20
0.0
 30
0.0
  9
$PLIMCHECK
 70
     0
  9
$PEXTMIN
 10
1.000000E+20
 20
1.000000E+20
 30
1.000000E+20
  9
$PEXTMAX
 10
-1.000000E+20
 20
-1.000000E+20
 30
-1.000000E+20
  9
$PLIMMIN
 10
0.0
 20
0.0
  9
$PLIMMAX
 10
12.0
 20
9.0
  9
$UNITMODE
 70
     0
  9
$VISRETAIN
 70
     0
  9
$PLINEGEN
 70
     1
  9
$PSLTSCALE
 70
     0
  9
$TREEDEPTH
 70
  3020
  9
$CMLSTYLE
  2
Standard
  9
$CMLJUST
 70
     0
  9
$CMLSCALE
 40
1.0
  9
$PROXYGRAPHICS
 70
     0
  9
$MEASUREMENT
 70
     1
  9
$CELWEIGHT
370
     0
  9
$ENDCAPS
280
     0
  9
$JOINSTYLE
280
     0
  9
$LWDISPLAY
290
     0
  9
$INSUNITS
 70
     0
  9
$HYPERLINKBASE
  1

  9
$STYLESHEET
  1

  9
$XEDIT
290
     1
  9
$CEPSNTYPE
380
     0
  9
$PSTYLEMODE
290
     1
  9
$FINGERPRINTGUID
  2

  9
$VERSIONGUID
  2

  9
$EXTNAMES
290
     1
  9
$PSVPSCALE
 40
0.0
  0
ENDSEC
  0
SECTION
  2
CLASSES
  0
CLASS
  1
LWPOLYLINE
  2
AcDbPolyline
  3
AutoCAD 2000
 90
    32768
280
     0
281
     1
  0
CLASS
  1
IMAGE
  2
AcDbRasterImage
  3
ISM
 90
    32895
280
     0
281
     1
  0
CLASS
  1
OLE2FRAME
  2
AcDbOle2Frame
  3
AutoCAD 2000
 90
    32768
280
     0
281
     1
  0
CLASS
  1
HATCH
  2
AcDbHatch
  3
AutoCAD 2000
 90
    32768
280
     0
281
     1
  0
CLASS
  1
DICTIONARYVAR
  2
AcDbDictionaryVar
  3
AutoCAD 2000
 90
    32768
280
     0
281
     0
  0
CLASS
  1
RASTERVARIABLES
  2
AcDbRasterVariables
  3
ISM
 90
    32768
280
     0
281
     0
  0
CLASS
  1
IMAGEDEF
  2
AcDbRasterImageDef
  3
ISM
 90
    32768
280
     0
281
     0
  0
CLASS
  1
IMAGEDEF_REACTOR
  2
AcDbRasterImageDefReactor
  3
ISM
 90
    32769
280
     0
281
     0
  0
CLASS
  1
IDBUFFER
  2
AcDbIdBuffer
  3
AutoCAD 2000
 90
    32768
280
     0
281
     0
  0
CLASS
  1
SPATIAL_FILTER
  2
AcDbSpatialFilter
  3
AutoCAD 2000
 90
    32768
280
     0
281
     0
  0
CLASS
  1
XRECORD
  2
AcDbXrecord
  3
AutoCAD 2000
 90
    32768
280
     0
281
     0
  0
CLASS
  1
SORTENTSTABLE
  2
AcDbSortentsTable
  3
AutoCAD 2000
 90
    32768
280
     0
281
     0
  0
CLASS
  1
LAYER_INDEX
  2
AcDbLayerIndex
  3
AutoCAD 2000
 90
    32768
280
     0
281
     0
  0
CLASS
  1
SPATIAL_INDEX
  2
AcDbSpatialIndex
  3
AutoCAD 2000
 90
    32768
280
     0
281
     0
  0
CLASS
  1
OBJECT_PTR
  2
CAseDLPNTableRecord
  3
"ASE-LPNTableRecord"
 90
    32769
280
     0
281
     0
  0
CLASS
  1
LAYOUT
  2
AcDbLayout
  3
AutoCAD 2000
 90
        0
280
     0
281
     0
  0
CLASS
  1
PLOTSETTINGS
  2
AcDbPlotSettings
  3
AutoCAD 2000
 90
    32768
280
     0
281
     0
  0
CLASS
  1
ACDBDICTIONARYWDFLT
  2
AcDbDictionaryWithDefault
  3
AutoCAD 2000
 90
        0
280
     0
281
     0
  0
CLASS
  1
ACDBPLACEHOLDER
  2
AcDbPlaceHolder
  3
AutoCAD 2000
 90
        0
280
     0
281
     0
  0
CLASS
  1
VBA_PROJECT
  2
AcDbVbaProject
  3
acadvba
 90
    32768
280
     0
281
     0
  0
CLASS
  1
WIPEOUT
  2
AcDbWipeout
  3
WipeOut|AutoCAD Express Tool|expresstools@autodesk.com
 90
    32895
280
     0
281
     1
  0
CLASS
  1
WIPEOUTVARIABLES
  2
AcDbWipeoutVariables
  3
WipeOut|AutoCAD Express Tool|expresstools@autodesk.com
 90
        0
280
     0
281
     0
  0
CLASS
  1
RTEXT
  2
RText
  3
RText|AutoCAD Express Tool|expresstools@autodesk.com
 90
    32768
280
     0
281
     1
  0
CLASS
  1
ARCALIGNEDTEXT
  2
AcDbArcAlignedText
  3
ATEXT|AutoCAD Express Tool|expresstools@autodesk.com
 90
    32768
280
     0
281
     1
  0
ENDSEC
  0
SECTION
  2
TABLES
  0
TABLE
  2
VPORT
  5
7
100
AcDbSymbolTable
 70
     1
  0
VPORT
  5
15
100
AcDbSymbolTableRecord
100
AcDbViewportTableRecord
  2
*ACTIVE
 70
     0
 10
0.0
 20
0.0
 11
1.0
 21
1.0
 12
6.591288
 22
4.579184
 13
0.0
 23
0.0
 14
1.0
 24
1.0
 15
0.0
 25
0.0
 16
0.0
 26
0.0
 36
1.0
 17
0.0
 27
0.0
 37
0.0
 40
9.158369
 41
0.688564
 42
50.0
 43
0.0
 44
0.0
 50
0.0
 51
0.0
 71
     0
 72
   100
 73
     1
 74
     1
 75
     0
 76
     0
 77
     0
 78
     0
281
     0
 65
     0
110
0.0
120
0.0
130
0.0
111
1.0
121
0.0
131
0.0
112
0.0
122
1.0
132
0.0
345
0
346
0
 79
     0
146
0.0
  0
ENDTAB
  0
TABLE
  2
LTYPE
  5
4
100
AcDbSymbolTable
 70
     3
  0
LTYPE
  5
11
100
AcDbSymbolTableRecord
100
AcDbLinetypeTableRecord
  2
ByBlock
 70
    64
  3

 72
    65
 73
     0
 40
0.0
  0
LTYPE
  5
12
100
AcDbSymbolTableRecord
100
AcDbLinetypeTableRecord
  2
ByLayer
 70
    64
  3

 72
    65
 73
     0
 40
0.0
  0
LTYPE
  5
13
100
AcDbSymbolTableRecord
100
AcDbLinetypeTableRecord
  2
Continuous
 70
    64
  3
Solid line
 72
    65
 73
     0
 40
0.0
  0
ENDTAB
  0
TABLE
  2
LAYER
  5
2
100
AcDbSymbolTable
 70
     2
  0
LAYER
  5
14
100
AcDbSymbolTableRecord
100
AcDbLayerTableRecord
  2
0
 70
     0
 62
     7
  6
Continuous
290
     1
370
    -3
390
1D
  0
LAYER
  5
28
100
AcDbSymbolTableRecord
100
AcDbLayerTableRecord
  2
EMBLEM
 70
     0
 62
   160
  6
Continuous
290
     1
370
    -3
390
1D
  0
ENDTAB
  0
TABLE
  2
STYLE
  5
3
100
AcDbSymbolTable
 70
     5
  0
STYLE
  5
17
100
AcDbSymbolTableRecord
100
AcDbTextStyleTableRecord
  2
Standard
 70
     0
 40
0.0
 41
1.0
 50
0.0
 71
     0
 42
0.0
  3
txt
  4

  0
STYLE
  5
24
100
AcDbSymbolTableRecord
100
AcDbTextStyleTableRecord
  2
STD
 70
     0
 40
0.0
 41
1.0
 50
0.0
 71
     0
 42
0.0
  3
txt
  4

  0
STYLE
  5
25
100
AcDbSymbolTableRecord
100
AcDbTextStyleTableRecord
  2
TATESTD
 70
     4
 40
0.0
 41
1.0
 50
0.0
 71
     0
 42
0.0
  3
txt
  4

  0
STYLE
  5
26
100
AcDbSymbolTableRecord
100
AcDbTextStyleTableRecord
  2
KANJISTD
 70
     0
 40
0.0
 41
1.0
 50
0.0
 71
     0
 42
0.0
  3
txt
  4
extfont
  0
STYLE
  5
27
100
AcDbSymbolTableRecord
100
AcDbTextStyleTableRecord
  2
KANJITATE
 70
     4
 40
0.0
 41
1.0
 50
0.0
 71
     0
 42
0.0
  3
txt
  4
extfont
  0
ENDTAB
  0
TABLE
  2
VIEW
  5
5
100
AcDbSymbolTable
 70
     0
  0
ENDTAB
  0
TABLE
  2
UCS
  5
6
100
AcDbSymbolTable
 70
     0
  0
ENDTAB
  0
TABLE
  2
APPID
  5
8
100
AcDbSymbolTable
 70
     1
  0
APPID
  5
16
100
AcDbSymbolTableRecord
100
AcDbRegAppTableRecord
  2
ACAD
 70
     0
  0
ENDTAB
  0
TABLE
  2
DIMSTYLE
  5
9
100
AcDbSymbolTable
 70
     1
100
AcDbDimStyleTable
 71
     0
  0
DIMSTYLE
105
18
100
AcDbSymbolTableRecord
100
AcDbDimStyleTableRecord
  2
Standard
 70
     0
  3

  4

 40
1.0
 41
0.18
 42
0.0625
 43
0.38
 44
0.18
 45
0.0
 46
0.0
 47
0.0
 48
0.0
 71
     0
 72
     0
 73
     1
 74
     1
 75
     0
 76
     0
 77
     0
 78
     0
 79
     0
140
0.18
141
0.09
142
0.0
143
25.4
144
1.0
145
0.0
146
1.0
147
0.09
148
0.0
170
     0
171
     2
172
     0
173
     0
174
     0
175
     0
176
     0
177
     0
178
     0
179
     0
271
     4
272
     4
273
     2
274
     2
275
     0
276
     0
277
     2
278
    46
279
     0
280
     0
281
     0
282
     0
283
     1
284
     0
285
     0
286
     0
288
     0
340
17
341
0
342
0
343
0
344
0
371
    -2
372
    -2
  0
ENDTAB
  0
TABLE
  2
BLOCK_RECORD
  5
1
100
AcDbSymbolTable
 70
     5
  0
BLOCK_RECORD
  5
A
100
AcDbSymbolTableRecord
100
AcDbBlockTableRecord
  2
*MODEL_SPACE
340
20
  0
BLOCK_RECORD
  5
B
100
AcDbSymbolTableRecord
100
AcDbBlockTableRecord
  2
*PAPER_SPACE
340
21
  0
BLOCK_RECORD
  5
29
100
AcDbSymbolTableRecord
100
AcDbBlockTableRecord
  2
AI9-BLK1
340
0
102
{BLKREFS
331
2A
102
}
  0
BLOCK_RECORD
  5
2C
100
AcDbSymbolTableRecord
100
AcDbBlockTableRecord
  2
AI9-BLK2
340
0
102
{BLKREFS
331
2D
102
}
  0
BLOCK_RECORD
  5
2F
100
AcDbSymbolTableRecord
100
AcDbBlockTableRecord
  2
AI9-BLK3
340
0
102
{BLKREFS
331
30
102
}
  0
BLOCK_RECORD
  5
146
100
AcDbSymbolTableRecord
100
AcDbBlockTableRecord
  2
AI9-BLK4
340
0
102
{BLKREFS
331
147
102
}
  0
BLOCK_RECORD
  5
18E
100
AcDbSymbolTableRecord
100
AcDbBlockTableRecord
  2
AI9-BLK5
340
0
102
{BLKREFS
331
18F
102
}
  0
ENDTAB
  0
ENDSEC
  0
SECTION
  2
BLOCKS
  0
BLOCK
  5
D
100
AcDbEntity
  8
0
100
AcDbBlockBegin
  2
*MODEL_SPACE
 70
     0
 10
0.0
 20
0.0
 30
0.0
  3
*MODEL_SPACE
  1

  0
ENDBLK
  5
E
100
AcDbEntity
  8
0
100
AcDbBlockEnd
  0
BLOCK
  5
F
100
AcDbEntity
 67
     1
  8
0
100
AcDbBlockBegin
  2
*PAPER_SPACE
 70
     0
 10
0.0
 20
0.0
 30
0.0
  3
*PAPER_SPACE
  1

  0
ENDBLK
  5
10
100
AcDbEntity
 67
     1
  8
0
100
AcDbBlockEnd
  0
BLOCK
  5
2B
100
AcDbEntity
  8
EMBLEM
 62
     7
100
AcDbBlockBegin
  2
AI9-BLK1
 70
     0
 10
0.0
 20
0.0
 30
0.0
  3
AI9-BLK1
  1

  0
SPLINE
  5
144
100
AcDbEntity
  8
EMBLEM
 62
     7
100
AcDbSpline
210
0.0
220
0.0
230
1.0
 70
     8
 71
     3
 72
    23
 73
    19
 74
     0
 42
0.00000001
 43
0.00000001
 40
0.0
 40
0.0
 40
0.0
 40
0.0
 40
1.0
 40
1.0
 40
1.0
 40
2.0
 40
2.0
 40
2.0
 40
3.0
 40
3.0
 40
3.0
 40
4.0
 40
4.0
 40
4.0
 40
5.0
 40
5.0
 40
5.0
 40
6.0
 40
6.0
 40
6.0
 40
6.0
 10
4.8704176161024302
 20
11.813404676649304
 30
0.0
 10
4.6788703070746527
 20
12.05731743706597
 30
0.0
 10
4.8704176161024302
 20
12.591996256510415
 30
0.0
 10
5.213549126519097
 20
12.690870496961804
 30
0.0
 10
5.503626166449652
 20
13.03055691189236
 30
0.0
 10
6.0903259277343746
 20
13.03055691189236
 30
0.0
 10
6.4327684190538186
 20
12.690870496961804
 30
0.0
 10
6.8193081325954852
 20
12.249553765190971
 30
0.0
 10
6.6246602376302075
 20
11.813404676649304
 30
0.0
 10
6.2825622558593741
 20
11.471306694878471
 30
0.0
 10
5.8460686577690968
 20
11.180540635850694
 30
0.0
 10
5.311734347873263
 20
11.180540635850694
 30
0.0
 10
5.0678215874565966
 20
11.61668972439236
 30
0.0
 10
5.0678215874565966
 20
11.61668972439236
 30
0.0
 10
4.8704176161024302
 20
11.813404676649304
 30
0.0
 10
4.8704176161024302
 20
11.813404676649304
 30
0.0
 10
4.8704176161024302
 20
11.813404676649304
 30
0.0
 10
4.8704176161024302
 20
11.813404676649304
 30
0.0
 10
4.8704176161024302
 20
11.813404676649304
 30
0.0
  0
SPLINE
  5
143
100
AcDbEntity
  8
EMBLEM
 62
     7
100
AcDbSpline
210
0.0
220
0.0
230
1.0
 70
     8
 71
     3
 72
    20
 73
    16
 74
     0
 42
0.00000001
 43
0.00000001
 40
0.0
 40
0.0
 40
0.0
 40
0.0
 40
1.0
 40
1.0
 40
1.0
 40
2.0
 40
2.0
 40
2.0
 40
3.0
 40
3.0
 40
3.0
 40
4.0
 40
4.0
 40
4.0
 40
5.0
 40
5.0
 40
5.0
 40
5.0
 10
11.446071370442708
 20
3.5803154839409719
 30
0.0
 10
11.204914686414929
 20
4.1174058702256939
 30
0.0
 10
11.204914686414929
 20
4.5563110351562495
 30
0.0
 10
11.593521457248263
 20
4.8956529405381941
 30
0.0
 10
11.985917833116318
 20
5.1395657009548605
 30
0.0
 10
12.56951700846354
 20
5.1395657009548605
 30
0.0
 10
12.764164903428819
 20
4.7010050455729164
 30
0.0
 10
13.007733154296874
 20
4.3585625542534716
 30
0.0
 10
13.007733154296874
 20
3.7749633789062496
 30
0.0
 10
12.56951700846354
 20
3.4838528103298607
 30
0.0
 10
12.226730007595485
 20
3.1414103190104163
 30
0.0
 10
11.788513861762151
 20
3.3364027235243054
 30
0.0
 10
11.446071370442708
 20
3.5803154839409719
 30
0.0
 10
11.446071370442708
 20
3.5803154839409719
 30
0.0
 10
11.446071370442708
 20
3.5803154839409719
 30
0.0
 10
11.446071370442708
 20
3.5803154839409719
 30
0.0
  0
POLYLINE
  5
9E
100
AcDbEntity
  8
EMBLEM
 62
     7
100
AcDb2dPolyline
 66
     1
 10
0.0
 20
0.0
 30
0.0
 70
     1
  0
VERTEX
  5
9F
100
AcDbEntity
  8
EMBLEM
 62
     7
100
AcDbVertex
100
AcDb2dVertex
 10
-5.991624
 20
-4.554588
 30
0.0
  0
VERTEX
  5
A0
100
AcDbEntity
  8
EMBLEM
 62
     7
100
AcDbVertex
100
AcDb2dVertex
 10
-11.154961
 20
-8.939851
 30
0.0
  0
VERTEX
  5
A1
100
AcDbEntity
  8
EMBLEM
 62
     7
100
AcDbVertex
100
AcDb2dVertex
 10
-11.447105
 20
-9.230617
 30
0.0
  0
VERTEX
  5
A2
100
AcDbEntity
  8
EMBLEM
 62
     7
100
AcDbVertex
100
AcDb2dVertex
 10
-11.545462
 20
-9.520694
 30
0.0
  0
VERTEX
  5
A3
100
AcDbEntity
  8
EMBLEM
 62
     7
100
AcDbVertex
100
AcDb2dVertex
 10
-11.545462
 20
-9.863825
 30
0.0
  0
VERTEX
  5
A4
100
AcDbEntity
  8
EMBLEM
 62
     7
100
AcDbVertex
100
AcDb2dVertex
 10
-11.399218
 20
-10.206268
 30
0.0
  0
VERTEX
  5
A5
100
AcDbEntity
  8
EMBLEM
 62
     7
100
AcDbVertex
100
AcDb2dVertex
 10
-11.204398
 20
-10.545954
 30
0.0
  0
VERTEX
  5
A6
100
AcDbEntity
  8
EMBLEM
 62
     7
100
AcDbVertex
100
AcDb2dVertex
 10
-10.911048
 20
-10.886329
 30
0.0
  0
VERTEX
  5
A7
100
AcDbEntity
  8
EMBLEM
 62
     7
100
AcDbVertex
100
AcDb2dVertex
 10
-10.570328
 20
-11.228772
 30
0.0
  0
VERTEX
  5
A8
100
AcDbEntity
  8
EMBLEM
 62
     7
100
AcDbVertex
100
AcDb2dVertex
 10
-9.936947
 20
-11.617379
 30
0.0
  0
VERTEX
  5
A9
100
AcDbEntity
  8
EMBLEM
 62
     7
100
AcDbVertex
100
AcDb2dVertex
 10
-9.49942
 20
-11.815127
 30
0.0
  0
VERTEX
  5
AA
100
AcDbEntity
  8
EMBLEM
 62
     7
100
AcDbVertex
100
AcDb2dVertex
 10
-9.061032
 20
-11.908489
 30
0.0
  0
VERTEX
  5
AB
100
AcDbEntity
  8
EMBLEM
 62
     7
100
AcDbVertex
100
AcDb2dVertex
 10
-8.621438
 20
-11.96051
 30
0.0
  0
VERTEX
  5
AC
100
AcDbEntity
  8
EMBLEM
 62
     7
100
AcDbVertex
100
AcDb2dVertex
 10
-8.233692
 20
-11.908489
 30
0.0
  0
VERTEX
  5
AD
100
AcDbEntity
  8
EMBLEM
 62
     7
100
AcDbVertex
100
AcDb2dVertex
 10
-7.843018
 20
-11.716597
 30
0.0
  0
VERTEX
  5
AE
100
AcDbEntity
  8
EMBLEM
 62
     7
100
AcDbVertex
100
AcDb2dVertex
 10
-7.549841
 20
-11.425831
 30
0.0
  0
VERTEX
  5
AF
100
AcDbEntity
  8
EMBLEM
 62
     7
100
AcDbVertex
100
AcDb2dVertex
 10
-7.20981
 20
-10.694093
 30
0.0
  0
VERTEX
  5
B0
100
AcDbEntity
  8
EMBLEM
 62
     7
100
AcDbVertex
100
AcDb2dVertex
 10
-6.868401
 20
-10.694093
 30
0.0
  0
VERTEX
  5
B1
100
AcDbEntity
  8
EMBLEM
 62
     7
100
AcDbVertex
100
AcDb2dVertex
 10
-6.769871
 20
-10.886329
 30
0.0
  0
VERTEX
  5
B2
100
AcDbEntity
  8
EMBLEM
 62
     7
100
AcDbVertex
100
AcDb2dVertex
 10
-6.672719
 20
-11.03378
 30
0.0
  0
VERTEX
  5
B3
100
AcDbEntity
  8
EMBLEM
 62
     7
100
AcDbVertex
100
AcDb2dVertex
 10
-6.527509
 20
-11.177096
 30
0.0
  0
VERTEX
  5
B4
100
AcDbEntity
  8
EMBLEM
 62
     7
100
AcDbVertex
100
AcDb2dVertex
 10
-6.430012
 20
-11.324546
 30
0.0
  0
VERTEX
  5
B5
100
AcDbEntity
  8
EMBLEM
 62
     7
100
AcDbVertex
100
AcDb2dVertex
 10
-6.332688
 20
-11.425831
 30
0.0
  0
VERTEX
  5
B6
100
AcDbEntity
  8
EMBLEM
 62
     7
100
AcDbVertex
100
AcDb2dVertex
 10
-6.1861
 20
-11.568458
 30
0.0
  0
VERTEX
  5
B7
100
AcDbEntity
  8
EMBLEM
 62
     7
100
AcDbVertex
100
AcDb2dVertex
 10
-6.088776
 20
-11.617379
 30
0.0
  0
VERTEX
  5
B8
100
AcDbEntity
  8
EMBLEM
 62
     7
100
AcDbVertex
100
AcDb2dVertex
 10
-5.913593
 20
-11.736924
 30
0.0
  0
VERTEX
  5
B9
100
AcDbEntity
  8
EMBLEM
 62
     7
100
AcDbVertex
100
AcDb2dVertex
 10
-5.731864
 20
-11.83063
 30
0.0
  0
VERTEX
  5
BA
100
AcDbEntity
  8
EMBLEM
 62
     7
100
AcDbVertex
100
AcDb2dVertex
 10
-5.552719
 20
-11.908489
 30
0.0
  0
VERTEX
  5
BB
100
AcDbEntity
  8
EMBLEM
 62
     7
100
AcDbVertex
100
AcDb2dVertex
 10
-5.40768
 20
-11.96051
 30
0.0
  0
VERTEX
  5
BC
100
AcDbEntity
  8
EMBLEM
 62
     7
100
AcDbVertex
100
AcDb2dVertex
 10
-5.225951
 20
-12.022866
 30
0.0
  0
VERTEX
  5
BD
100
AcDbEntity
  8
EMBLEM
 62
     7
100
AcDbVertex
100
AcDb2dVertex
 10
-5.074023
 20
-12.071787
 30
0.0
  0
VERTEX
  5
BE
100
AcDbEntity
  8
EMBLEM
 62
     7
100
AcDbVertex
100
AcDb2dVertex
 10
-4.823909
 20
-12.151713
 30
0.0
  0
VERTEX
  5
BF
100
AcDbEntity
  8
EMBLEM
 62
     7
100
AcDbVertex
100
AcDb2dVertex
 10
-4.432029
 20
-12.194088
 30
0.0
  0
VERTEX
  5
C0
100
AcDbEntity
  8
EMBLEM
 62
     7
100
AcDbVertex
100
AcDb2dVertex
 10
-4.336083
 20
-12.445924
 30
0.0
  0
VERTEX
  5
C1
100
AcDbEntity
  8
EMBLEM
 62
     7
100
AcDbVertex
100
AcDb2dVertex
 10
-4.529009
 20
-12.494845
 30
0.0
  0
VERTEX
  5
C2
100
AcDbEntity
  8
EMBLEM
 62
     7
100
AcDbVertex
100
AcDb2dVertex
 10
-4.665434
 20
-12.557201
 30
0.0
  0
VERTEX
  5
C3
100
AcDbEntity
  8
EMBLEM
 62
     7
100
AcDbVertex
100
AcDb2dVertex
 10
-4.823909
 20
-12.639883
 30
0.0
  0
VERTEX
  5
C4
100
AcDbEntity
  8
EMBLEM
 62
     7
100
AcDbVertex
100
AcDb2dVertex
 10
-4.969292
 20
-12.739102
 30
0.0
  0
VERTEX
  5
C5
100
AcDbEntity
  8
EMBLEM
 62
     7
100
AcDbVertex
100
AcDb2dVertex
 10
-5.066271
 20
-12.837287
 30
0.0
  0
VERTEX
  5
C6
100
AcDbEntity
  8
EMBLEM
 62
     7
100
AcDbVertex
100
AcDb2dVertex
 10
-5.213205
 20
-12.983015
 30
0.0
  0
VERTEX
  5
C7
100
AcDbEntity
  8
EMBLEM
 62
     7
100
AcDbVertex
100
AcDb2dVertex
 10
-5.308806
 20
-13.081544
 30
0.0
  0
VERTEX
  5
C8
100
AcDbEntity
  8
EMBLEM
 62
     7
100
AcDbVertex
100
AcDb2dVertex
 10
-5.454361
 20
-13.322701
 30
0.0
  0
VERTEX
  5
C9
100
AcDbEntity
  8
EMBLEM
 62
     7
100
AcDbVertex
100
AcDb2dVertex
 10
-5.552719
 20
-13.470151
 30
0.0
  0
VERTEX
  5
CA
100
AcDbEntity
  8
EMBLEM
 62
     7
100
AcDbVertex
100
AcDb2dVertex
 10
-5.60095
 20
-13.615879
 30
0.0
  0
VERTEX
  5
CB
100
AcDbEntity
  8
EMBLEM
 62
     7
100
AcDbVertex
100
AcDb2dVertex
 10
-5.69948
 20
-13.810527
 30
0.0
  0
VERTEX
  5
CC
100
AcDbEntity
  8
EMBLEM
 62
     7
100
AcDbVertex
100
AcDb2dVertex
 10
-5.747711
 20
-14.005174
 30
0.0
  0
VERTEX
  5
CD
100
AcDbEntity
  8
EMBLEM
 62
     7
100
AcDbVertex
100
AcDb2dVertex
 10
-5.796632
 20
-14.202234
 30
0.0
  0
VERTEX
  5
CE
100
AcDbEntity
  8
EMBLEM
 62
     7
100
AcDbVertex
100
AcDb2dVertex
 10
-5.796632
 20
-14.443391
 30
0.0
  0
VERTEX
  5
CF
100
AcDbEntity
  8
EMBLEM
 62
     7
100
AcDbVertex
100
AcDb2dVertex
 10
-5.796632
 20
-14.736568
 30
0.0
  0
VERTEX
  5
D0
100
AcDbEntity
  8
EMBLEM
 62
     7
100
AcDbVertex
100
AcDb2dVertex
 10
-6.107035
 20
-14.897799
 30
0.0
  0
VERTEX
  5
D1
100
AcDbEntity
  8
EMBLEM
 62
     7
100
AcDbVertex
100
AcDb2dVertex
 10
-6.088776
 20
-14.931561
 30
0.0
  0
VERTEX
  5
D2
100
AcDbEntity
  8
EMBLEM
 62
     7
100
AcDbVertex
100
AcDb2dVertex
 10
-6.382126
 20
-14.736568
 30
0.0
  0
VERTEX
  5
D3
100
AcDbEntity
  8
EMBLEM
 62
     7
100
AcDbVertex
100
AcDb2dVertex
 10
-6.625694
 20
-14.539853
 30
0.0
  0
VERTEX
  5
D4
100
AcDbEntity
  8
EMBLEM
 62
     7
100
AcDbVertex
100
AcDb2dVertex
 10
-6.868401
 20
-14.443391
 30
0.0
  0
VERTEX
  5
D5
100
AcDbEntity
  8
EMBLEM
 62
     7
100
AcDbVertex
100
AcDb2dVertex
 10
-7.161923
 20
-14.29594
 30
0.0
  0
VERTEX
  5
D6
100
AcDbEntity
  8
EMBLEM
 62
     7
100
AcDbVertex
100
AcDb2dVertex
 10
-7.452517
 20
-14.248398
 30
0.0
  0
VERTEX
  5
D7
100
AcDbEntity
  8
EMBLEM
 62
     7
100
AcDbVertex
100
AcDb2dVertex
 10
-7.696429
 20
-14.202234
 30
0.0
  0
VERTEX
  5
D8
100
AcDbEntity
  8
EMBLEM
 62
     7
100
AcDbVertex
100
AcDb2dVertex
 10
-7.988229
 20
-14.150213
 30
0.0
  0
VERTEX
  5
D9
100
AcDbEntity
  8
EMBLEM
 62
     7
100
AcDbVertex
100
AcDb2dVertex
 10
-8.378731
 20
-14.103704
 30
0.0
  0
VERTEX
  5
DA
100
AcDbEntity
  8
EMBLEM
 62
     7
100
AcDbVertex
100
AcDb2dVertex
 10
-8.621438
 20
-14.103704
 30
0.0
  0
VERTEX
  5
DB
100
AcDbEntity
  8
EMBLEM
 62
     7
100
AcDbVertex
100
AcDb2dVertex
 10
-8.86535
 20
-14.103704
 30
0.0
  0
VERTEX
  5
DC
100
AcDbEntity
  8
EMBLEM
 62
     7
100
AcDbVertex
100
AcDb2dVertex
 10
-9.061032
 20
-14.103704
 30
0.0
  0
VERTEX
  5
DD
100
AcDbEntity
  8
EMBLEM
 62
     7
100
AcDbVertex
100
AcDb2dVertex
 10
-9.255852
 20
-14.103704
 30
0.0
  0
VERTEX
  5
DE
100
AcDbEntity
  8
EMBLEM
 62
     7
100
AcDbVertex
100
AcDb2dVertex
 10
-9.450328
 20
-14.103704
 30
0.0
  0
VERTEX
  5
DF
100
AcDbEntity
  8
EMBLEM
 62
     7
100
AcDbVertex
100
AcDb2dVertex
 10
-9.64532
 20
-14.052028
 30
0.0
  0
VERTEX
  5
E0
100
AcDbEntity
  8
EMBLEM
 62
     7
100
AcDbVertex
100
AcDb2dVertex
 10
-9.841001
 20
-13.958321
 30
0.0
  0
VERTEX
  5
E1
100
AcDbEntity
  8
EMBLEM
 62
     7
100
AcDbVertex
100
AcDb2dVertex
 10
-10.228747
 20
-13.761262
 30
0.0
  0
VERTEX
  5
E2
100
AcDbEntity
  8
EMBLEM
 62
     7
100
AcDbVertex
100
AcDb2dVertex
 10
-10.570328
 20
-13.470151
 30
0.0
  0
VERTEX
  5
E3
100
AcDbEntity
  8
EMBLEM
 62
     7
100
AcDbVertex
100
AcDb2dVertex
 10
-10.911048
 20
-13.177318
 30
0.0
  0
VERTEX
  5
E4
100
AcDbEntity
  8
EMBLEM
 62
     7
100
AcDbVertex
100
AcDb2dVertex
 10
-11.252629
 20
-12.883796
 30
0.0
  0
VERTEX
  5
E5
100
AcDbEntity
  8
EMBLEM
 62
     7
100
AcDbVertex
100
AcDb2dVertex
 10
-11.593694
 20
-12.593374
 30
0.0
  0
VERTEX
  5
E6
100
AcDbEntity
  8
EMBLEM
 62
     7
100
AcDbVertex
100
AcDb2dVertex
 10
-11.884288
 20
-12.302953
 30
0.0
  0
VERTEX
  5
E7
100
AcDbEntity
  8
EMBLEM
 62
     7
100
AcDbVertex
100
AcDb2dVertex
 10
-12.226558
 20
-12.009775
 30
0.0
  0
VERTEX
  5
E8
100
AcDbEntity
  8
EMBLEM
 62
     7
100
AcDbVertex
100
AcDb2dVertex
 10
-12.665463
 20
-11.617379
 30
0.0
  0
VERTEX
  5
E9
100
AcDbEntity
  8
EMBLEM
 62
     7
100
AcDbVertex
100
AcDb2dVertex
 10
-12.957435
 20
-11.373466
 30
0.0
  0
VERTEX
  5
EA
100
AcDbEntity
  8
EMBLEM
 62
     7
100
AcDbVertex
100
AcDb2dVertex
 10
-13.249234
 20
-11.130242
 30
0.0
  0
VERTEX
  5
EB
100
AcDbEntity
  8
EMBLEM
 62
     7
100
AcDbVertex
100
AcDb2dVertex
 10
-13.541034
 20
-10.938006
 30
0.0
  0
VERTEX
  5
EC
100
AcDbEntity
  8
EMBLEM
 62
     7
100
AcDbVertex
100
AcDb2dVertex
 10
-13.834556
 20
-10.789867
 30
0.0
  0
VERTEX
  5
ED
100
AcDbEntity
  8
EMBLEM
 62
     7
100
AcDbVertex
100
AcDb2dVertex
 10
-14.126356
 20
-10.642417
 30
0.0
  0
VERTEX
  5
EE
100
AcDbEntity
  8
EMBLEM
 62
     7
100
AcDbVertex
100
AcDb2dVertex
 10
-14.370268
 20
-10.595219
 30
0.0
  0
VERTEX
  5
EF
100
AcDbEntity
  8
EMBLEM
 62
     7
100
AcDbVertex
100
AcDb2dVertex
 10
-14.759564
 20
-10.545954
 30
0.0
  0
VERTEX
  5
F0
100
AcDbEntity
  8
EMBLEM
 62
     7
100
AcDbVertex
100
AcDb2dVertex
 10
-15.197953
 20
-10.154247
 30
0.0
  0
VERTEX
  5
F1
100
AcDbEntity
  8
EMBLEM
 62
     7
100
AcDbVertex
100
AcDb2dVertex
 10
-15.100456
 20
-9.91309
 30
0.0
  0
VERTEX
  5
F2
100
AcDbEntity
  8
EMBLEM
 62
     7
100
AcDbVertex
100
AcDb2dVertex
 10
-15.05257
 20
-9.622668
 30
0.0
  0
VERTEX
  5
F3
100
AcDbEntity
  8
EMBLEM
 62
     7
100
AcDbVertex
100
AcDb2dVertex
 10
-15.05257
 20
-9.329491
 30
0.0
  0
VERTEX
  5
F4
100
AcDbEntity
  8
EMBLEM
 62
     7
100
AcDbVertex
100
AcDb2dVertex
 10
-15.100456
 20
-9.038036
 30
0.0
  0
VERTEX
  5
F5
100
AcDbEntity
  8
EMBLEM
 62
     7
100
AcDbVertex
100
AcDb2dVertex
 10
-15.197953
 20
-8.742447
 30
0.0
  0
VERTEX
  5
F6
100
AcDbEntity
  8
EMBLEM
 62
     7
100
AcDbVertex
100
AcDb2dVertex
 10
-15.295277
 20
-8.451681
 30
0.0
  0
VERTEX
  5
F7
100
AcDbEntity
  8
EMBLEM
 62
     7
100
AcDbVertex
100
AcDb2dVertex
 10
-15.441865
 20
-8.161259
 30
0.0
  0
VERTEX
  5
F8
100
AcDbEntity
  8
EMBLEM
 62
     7
100
AcDbVertex
100
AcDb2dVertex
 10
-15.734871
 20
-7.673433
 30
0.0
  0
VERTEX
  5
F9
100
AcDbEntity
  8
EMBLEM
 62
     7
100
AcDbVertex
100
AcDb2dVertex
 10
-15.929691
 20
-7.330991
 30
0.0
  0
VERTEX
  5
FA
100
AcDbEntity
  8
EMBLEM
 62
     7
100
AcDbVertex
100
AcDb2dVertex
 10
-16.075246
 20
-6.988893
 30
0.0
  0
VERTEX
  5
FB
100
AcDbEntity
  8
EMBLEM
 62
     7
100
AcDbVertex
100
AcDb2dVertex
 10
-16.270928
 20
-6.599253
 30
0.0
  0
VERTEX
  5
FC
100
AcDbEntity
  8
EMBLEM
 62
     7
100
AcDbVertex
100
AcDb2dVertex
 10
-16.464197
 20
-6.259566
 30
0.0
  0
VERTEX
  5
FD
100
AcDbEntity
  8
EMBLEM
 62
     7
100
AcDbVertex
100
AcDb2dVertex
 10
-16.611992
 20
-5.87027
 30
0.0
  0
VERTEX
  5
FE
100
AcDbEntity
  8
EMBLEM
 62
     7
100
AcDbVertex
100
AcDb2dVertex
 10
-16.757547
 20
-5.478219
 30
0.0
  0
VERTEX
  5
FF
100
AcDbEntity
  8
EMBLEM
 62
     7
100
AcDbVertex
100
AcDb2dVertex
 10
-16.854699
 20
-4.84501
 30
0.0
  0
VERTEX
  5
100
100
AcDbEntity
  8
EMBLEM
 62
     7
100
AcDbVertex
100
AcDb2dVertex
 10
-16.902586
 20
-4.699972
 30
0.0
  0
VERTEX
  5
101
100
AcDbEntity
  8
EMBLEM
 62
     7
100
AcDbVertex
100
AcDb2dVertex
 10
-16.854699
 20
-4.50808
 30
0.0
  0
VERTEX
  5
102
100
AcDbEntity
  8
EMBLEM
 62
     7
100
AcDbVertex
100
AcDb2dVertex
 10
-16.854699
 20
-4.310331
 30
0.0
  0
VERTEX
  5
103
100
AcDbEntity
  8
EMBLEM
 62
     7
100
AcDbVertex
100
AcDb2dVertex
 10
-16.805262
 20
-4.066418
 30
0.0
  0
VERTEX
  5
104
100
AcDbEntity
  8
EMBLEM
 62
     7
100
AcDbVertex
100
AcDb2dVertex
 10
-16.708455
 20
-3.872115
 30
0.0
  0
VERTEX
  5
105
100
AcDbEntity
  8
EMBLEM
 62
     7
100
AcDbVertex
100
AcDb2dVertex
 10
-16.658673
 20
-3.630958
 30
0.0
  0
VERTEX
  5
106
100
AcDbEntity
  8
EMBLEM
 62
     7
100
AcDbVertex
100
AcDb2dVertex
 10
-16.611992
 20
-3.387046
 30
0.0
  0
VERTEX
  5
107
100
AcDbEntity
  8
EMBLEM
 62
     7
100
AcDbVertex
100
AcDb2dVertex
 10
-16.561694
 20
-2.994649
 30
0.0
  0
VERTEX
  5
108
100
AcDbEntity
  8
EMBLEM
 62
     7
100
AcDbVertex
100
AcDb2dVertex
 10
-16.513635
 20
-2.701816
 30
0.0
  0
VERTEX
  5
109
100
AcDbEntity
  8
EMBLEM
 62
     7
100
AcDbVertex
100
AcDb2dVertex
 10
-16.513635
 20
-2.411395
 30
0.0
  0
VERTEX
  5
10A
100
AcDbEntity
  8
EMBLEM
 62
     7
100
AcDbVertex
100
AcDb2dVertex
 10
-16.513635
 20
-2.120629
 30
0.0
  0
VERTEX
  5
10B
100
AcDbEntity
  8
EMBLEM
 62
     7
100
AcDbVertex
100
AcDb2dVertex
 10
-16.561694
 20
-1.827451
 30
0.0
  0
VERTEX
  5
10C
100
AcDbEntity
  8
EMBLEM
 62
     7
100
AcDbVertex
100
AcDb2dVertex
 10
-16.611992
 20
-1.581127
 30
0.0
  0
VERTEX
  5
10D
100
AcDbEntity
  8
EMBLEM
 62
     7
100
AcDbVertex
100
AcDb2dVertex
 10
-16.708455
 20
-1.290361
 30
0.0
  0
VERTEX
  5
10E
100
AcDbEntity
  8
EMBLEM
 62
     7
100
AcDbVertex
100
AcDb2dVertex
 10
-16.952367
 20
-0.802535
 30
0.0
  0
VERTEX
  5
10F
100
AcDbEntity
  8
EMBLEM
 62
     7
100
AcDbVertex
100
AcDb2dVertex
 10
-16.854699
 20
-0.462849
 30
0.0
  0
VERTEX
  5
110
100
AcDbEntity
  8
EMBLEM
 62
     7
100
AcDbVertex
100
AcDb2dVertex
 10
-16.658673
 20
-0.462849
 30
0.0
  0
VERTEX
  5
111
100
AcDbEntity
  8
EMBLEM
 62
     7
100
AcDbVertex
100
AcDb2dVertex
 10
-16.464197
 20
-0.462849
 30
0.0
  0
VERTEX
  5
112
100
AcDbEntity
  8
EMBLEM
 62
     7
100
AcDbVertex
100
AcDb2dVertex
 10
-16.270928
 20
-0.462849
 30
0.0
  0
VERTEX
  5
113
100
AcDbEntity
  8
EMBLEM
 62
     7
100
AcDbVertex
100
AcDb2dVertex
 10
-16.075246
 20
-0.412895
 30
0.0
  0
VERTEX
  5
114
100
AcDbEntity
  8
EMBLEM
 62
     7
100
AcDbVertex
100
AcDb2dVertex
 10
-15.929691
 20
-0.366386
 30
0.0
  0
VERTEX
  5
115
100
AcDbEntity
  8
EMBLEM
 62
     7
100
AcDbVertex
100
AcDb2dVertex
 10
-15.734871
 20
-0.314709
 30
0.0
  0
VERTEX
  5
116
100
AcDbEntity
  8
EMBLEM
 62
     7
100
AcDbVertex
100
AcDb2dVertex
 10
-15.587076
 20
-0.221692
 30
0.0
  0
VERTEX
  5
117
100
AcDbEntity
  8
EMBLEM
 62
     7
100
AcDbVertex
100
AcDb2dVertex
 10
-15.344714
 20
-0.122473
 30
0.0
  0
VERTEX
  5
118
100
AcDbEntity
  8
EMBLEM
 62
     7
100
AcDbVertex
100
AcDb2dVertex
 10
-15.197953
 20
-0.023943
 30
0.0
  0
VERTEX
  5
119
100
AcDbEntity
  8
EMBLEM
 62
     7
100
AcDbVertex
100
AcDb2dVertex
 10
-15.05257
 20
0.07183
 30
0.0
  0
VERTEX
  5
11A
100
AcDbEntity
  8
EMBLEM
 62
     7
100
AcDbVertex
100
AcDb2dVertex
 10
-14.906325
 20
0.170704
 30
0.0
  0
VERTEX
  5
11B
100
AcDbEntity
  8
EMBLEM
 62
     7
100
AcDbVertex
100
AcDb2dVertex
 10
-14.808657
 20
0.269234
 30
0.0
  0
VERTEX
  5
11C
100
AcDbEntity
  8
EMBLEM
 62
     7
100
AcDbVertex
100
AcDb2dVertex
 10
-14.663618
 20
0.414617
 30
0.0
  0
VERTEX
  5
11D
100
AcDbEntity
  8
EMBLEM
 62
     7
100
AcDbVertex
100
AcDb2dVertex
 10
-14.518063
 20
0.510391
 30
0.0
  0
VERTEX
  5
11E
100
AcDbEntity
  8
EMBLEM
 62
     7
100
AcDbVertex
100
AcDb2dVertex
 10
-14.320831
 20
0.754304
 30
0.0
  0
VERTEX
  5
11F
100
AcDbEntity
  8
EMBLEM
 62
     7
100
AcDbVertex
100
AcDb2dVertex
 10
-13.980973
 20
0.608921
 30
0.0
  0
VERTEX
  5
120
100
AcDbEntity
  8
EMBLEM
 62
     7
100
AcDbVertex
100
AcDb2dVertex
 10
-13.980973
 20
0.365697
 30
0.0
  0
VERTEX
  5
121
100
AcDbEntity
  8
EMBLEM
 62
     7
100
AcDbVertex
100
AcDb2dVertex
 10
-13.980973
 20
0.12144
 30
0.0
  0
VERTEX
  5
122
100
AcDbEntity
  8
EMBLEM
 62
     7
100
AcDbVertex
100
AcDb2dVertex
 10
-13.980973
 20
-0.073208
 30
0.0
  0
VERTEX
  5
123
100
AcDbEntity
  8
EMBLEM
 62
     7
100
AcDbVertex
100
AcDb2dVertex
 10
-13.932741
 20
-0.267856
 30
0.0
  0
VERTEX
  5
124
100
AcDbEntity
  8
EMBLEM
 62
     7
100
AcDbVertex
100
AcDb2dVertex
 10
-13.932741
 20
-0.511769
 30
0.0
  0
VERTEX
  5
125
100
AcDbEntity
  8
EMBLEM
 62
     7
100
AcDbVertex
100
AcDb2dVertex
 10
-13.883649
 20
-0.706761
 30
0.0
  0
VERTEX
  5
126
100
AcDbEntity
  8
EMBLEM
 62
     7
100
AcDbVertex
100
AcDb2dVertex
 10
-13.834556
 20
-0.90072
 30
0.0
  0
VERTEX
  5
127
100
AcDbEntity
  8
EMBLEM
 62
     7
100
AcDbVertex
100
AcDb2dVertex
 10
-13.73706
 20
-1.191486
 30
0.0
  0
VERTEX
  5
128
100
AcDbEntity
  8
EMBLEM
 62
     7
100
AcDbVertex
100
AcDb2dVertex
 10
-13.639736
 20
-1.388546
 30
0.0
  0
VERTEX
  5
129
100
AcDbEntity
  8
EMBLEM
 62
     7
100
AcDbVertex
100
AcDb2dVertex
 10
-13.590471
 20
-1.581127
 30
0.0
  0
VERTEX
  5
12A
100
AcDbEntity
  8
EMBLEM
 62
     7
100
AcDbVertex
100
AcDb2dVertex
 10
-13.493147
 20
-1.778186
 30
0.0
  0
VERTEX
  5
12B
100
AcDbEntity
  8
EMBLEM
 62
     7
100
AcDbVertex
100
AcDb2dVertex
 10
-13.395823
 20
-1.923225
 30
0.0
  0
VERTEX
  5
12C
100
AcDbEntity
  8
EMBLEM
 62
     7
100
AcDbVertex
100
AcDb2dVertex
 10
-13.249234
 20
-2.120629
 30
0.0
  0
VERTEX
  5
12D
100
AcDbEntity
  8
EMBLEM
 62
     7
100
AcDbVertex
100
AcDb2dVertex
 10
-13.151566
 20
-2.315621
 30
0.0
  0
VERTEX
  5
12E
100
AcDbEntity
  8
EMBLEM
 62
     7
100
AcDbVertex
100
AcDb2dVertex
 10
-12.907998
 20
-2.556778
 30
0.0
  0
VERTEX
  5
12F
100
AcDbEntity
  8
EMBLEM
 62
     7
100
AcDbVertex
100
AcDb2dVertex
 10
-13.006527
 20
-2.80069
 30
0.0
  0
VERTEX
  5
130
100
AcDbEntity
  8
EMBLEM
 62
     7
100
AcDbVertex
100
AcDb2dVertex
 10
-13.639736
 20
-2.852711
 30
0.0
  0
VERTEX
  5
131
100
AcDbEntity
  8
EMBLEM
 62
     7
100
AcDbVertex
100
AcDb2dVertex
 10
-14.077263
 20
-3.044948
 30
0.0
  0
VERTEX
  5
132
100
AcDbEntity
  8
EMBLEM
 62
     7
100
AcDbVertex
100
AcDb2dVertex
 10
-14.419361
 20
-3.288171
 30
0.0
  0
VERTEX
  5
133
100
AcDbEntity
  8
EMBLEM
 62
     7
100
AcDbVertex
100
AcDb2dVertex
 10
-14.663618
 20
-3.630958
 30
0.0
  0
VERTEX
  5
134
100
AcDbEntity
  8
EMBLEM
 62
     7
100
AcDbVertex
100
AcDb2dVertex
 10
-14.808657
 20
-4.01991
 30
0.0
  0
VERTEX
  5
135
100
AcDbEntity
  8
EMBLEM
 62
     7
100
AcDbVertex
100
AcDb2dVertex
 10
-14.856716
 20
-4.50808
 30
0.0
  0
VERTEX
  5
136
100
AcDbEntity
  8
EMBLEM
 62
     7
100
AcDbVertex
100
AcDb2dVertex
 10
-14.808657
 20
-4.993149
 30
0.0
  0
VERTEX
  5
137
100
AcDbEntity
  8
EMBLEM
 62
     7
100
AcDbVertex
100
AcDb2dVertex
 10
-14.612975
 20
-5.675967
 30
0.0
  0
VERTEX
  5
138
100
AcDbEntity
  8
EMBLEM
 62
     7
100
AcDbVertex
100
AcDb2dVertex
 10
-14.467592
 20
-6.163104
 30
0.0
  0
VERTEX
  5
139
100
AcDbEntity
  8
EMBLEM
 62
     7
100
AcDbVertex
100
AcDb2dVertex
 10
-14.22523
 20
-6.552744
 30
0.0
  0
VERTEX
  5
13A
100
AcDbEntity
  8
EMBLEM
 62
     7
100
AcDbVertex
100
AcDb2dVertex
 10
-13.932741
 20
-6.889674
 30
0.0
  0
VERTEX
  5
13B
100
AcDbEntity
  8
EMBLEM
 62
     7
100
AcDbVertex
100
AcDb2dVertex
 10
-13.639736
 20
-7.185608
 30
0.0
  0
VERTEX
  5
13C
100
AcDbEntity
  8
EMBLEM
 62
     7
100
AcDbVertex
100
AcDb2dVertex
 10
-13.347764
 20
-7.330991
 30
0.0
  0
VERTEX
  5
13D
100
AcDbEntity
  8
EMBLEM
 62
     7
100
AcDbVertex
100
AcDb2dVertex
 10
-13.054759
 20
-7.380256
 30
0.0
  0
VERTEX
  5
13E
100
AcDbEntity
  8
EMBLEM
 62
     7
100
AcDbVertex
100
AcDb2dVertex
 10
-12.568139
 20
-7.185608
 30
0.0
  0
VERTEX
  5
13F
100
AcDbEntity
  8
EMBLEM
 62
     7
100
AcDbVertex
100
AcDb2dVertex
 10
-9.15715
 20
-4.554588
 30
0.0
  0
VERTEX
  5
140
100
AcDbEntity
  8
EMBLEM
 62
     7
100
AcDbVertex
100
AcDb2dVertex
 10
-5.991624
 20
-2.022099
 30
0.0
  0
VERTEX
  5
141
100
AcDbEntity
  8
EMBLEM
 62
     7
100
AcDbVertex
100
AcDb2dVertex
 10
-5.991624
 20
-4.554588
 30
0.0
  0
SEQEND
  5
142
100
AcDbEntity
  8
EMBLEM
 62
     7
  0
INSERT
  5
2D
100
AcDbEntity
  8
EMBLEM
 62
     7
100
AcDbBlockReference
  2
AI9-BLK2
 10
9.767449
 20
8.427048
 30
0.0
  0
ENDBLK
  5
145
100
AcDbEntity
  8
EMBLEM
100
AcDbBlockEnd
  0
BLOCK
  5
2E
100
AcDbEntity
  8
EMBLEM
 62
     7
100
AcDbBlockBegin
  2
AI9-BLK2
 70
     0
 10
0.0
 20
0.0
 30
0.0
  3
AI9-BLK2
  1

  0
INSERT
  5
30
100
AcDbEntity
  8
EMBLEM
 62
     7
100
AcDbBlockReference
  2
AI9-BLK3
 10
0.0
 20
0.0
 30
0.0
  0
ENDBLK
  5
9D
100
AcDbEntity
  8
EMBLEM
100
AcDbBlockEnd
  0
BLOCK
  5
31
100
AcDbEntity
  8
EMBLEM
 62
     7
100
AcDbBlockBegin
  2
AI9-BLK3
 70
     0
 10
0.0
 20
0.0
 30
0.0
  3
AI9-BLK3
  1

  0
POLYLINE
  5
33
100
AcDbEntity
  8
EMBLEM
 62
     7
100
AcDb2dPolyline
 66
     1
 10
0.0
 20
0.0
 30
0.0
 70
     1
  0
VERTEX
  5
34
100
AcDbEntity
  8
EMBLEM
 62
     7
100
AcDbVertex
100
AcDb2dVertex
 10
7.086045
 20
3.334336
 30
0.0
  0
VERTEX
  5
35
100
AcDbEntity
  8
EMBLEM
 62
     7
100
AcDbVertex
100
AcDb2dVertex
 10
6.844543
 20
4.01991
 30
0.0
  0
VERTEX
  5
36
100
AcDbEntity
  8
EMBLEM
 62
     7
100
AcDbVertex
100
AcDb2dVertex
 10
6.211679
 20
5.042414
 30
0.0
  0
VERTEX
  5
37
100
AcDbEntity
  8
EMBLEM
 62
     7
100
AcDbVertex
100
AcDb2dVertex
 10
5.674934
 20
5.578126
 30
0.0
  0
VERTEX
  5
38
100
AcDbEntity
  8
EMBLEM
 62
     7
100
AcDbVertex
100
AcDb2dVertex
 10
5.088234
 20
6.017721
 30
0.0
  0
VERTEX
  5
39
100
AcDbEntity
  8
EMBLEM
 62
     7
100
AcDbVertex
100
AcDb2dVertex
 10
4.506702
 20
6.308487
 30
0.0
  0
VERTEX
  5
3A
100
AcDbEntity
  8
EMBLEM
 62
     7
100
AcDbVertex
100
AcDb2dVertex
 10
3.920346
 20
6.454903
 30
0.0
  0
VERTEX
  5
3B
100
AcDbEntity
  8
EMBLEM
 62
     7
100
AcDbVertex
100
AcDb2dVertex
 10
3.339503
 20
6.504513
 30
0.0
  0
VERTEX
  5
3C
100
AcDbEntity
  8
EMBLEM
 62
     7
100
AcDbVertex
100
AcDb2dVertex
 10
2.753148
 20
6.454903
 30
0.0
  0
VERTEX
  5
3D
100
AcDbEntity
  8
EMBLEM
 62
     7
100
AcDbVertex
100
AcDb2dVertex
 10
2.218469
 20
6.308487
 30
0.0
  0
VERTEX
  5
3E
100
AcDbEntity
  8
EMBLEM
 62
     7
100
AcDbVertex
100
AcDb2dVertex
 10
1.437466
 20
5.869926
 30
0.0
  0
VERTEX
  5
3F
100
AcDbEntity
  8
EMBLEM
 62
     7
100
AcDbVertex
100
AcDb2dVertex
 10
0.998561
 20
5.53024
 30
0.0
  0
VERTEX
  5
40
100
AcDbEntity
  8
EMBLEM
 62
     7
100
AcDbVertex
100
AcDb2dVertex
 10
0.656463
 20
5.088578
 30
0.0
  0
VERTEX
  5
41
100
AcDbEntity
  8
EMBLEM
 62
     7
100
AcDbVertex
100
AcDb2dVertex
 10
0.365352
 20
4.603509
 30
0.0
  0
VERTEX
  5
42
100
AcDbEntity
  8
EMBLEM
 62
     7
100
AcDbVertex
100
AcDb2dVertex
 10
0.219969
 20
4.066418
 30
0.0
  0
VERTEX
  5
43
100
AcDbEntity
  8
EMBLEM
 62
     7
100
AcDbVertex
100
AcDb2dVertex
 10
0.168293
 20
3.532084
 30
0.0
  0
VERTEX
  5
44
100
AcDbEntity
  8
EMBLEM
 62
     7
100
AcDbVertex
100
AcDb2dVertex
 10
0.219969
 20
2.945729
 30
0.0
  0
VERTEX
  5
45
100
AcDbEntity
  8
EMBLEM
 62
     7
100
AcDbVertex
100
AcDb2dVertex
 10
0.609265
 20
2.068263
 30
0.0
  0
VERTEX
  5
46
100
AcDbEntity
  8
EMBLEM
 62
     7
100
AcDbVertex
100
AcDb2dVertex
 10
-0.92897
 20
1.013719
 30
0.0
  0
VERTEX
  5
47
100
AcDbEntity
  8
EMBLEM
 62
     7
100
AcDbVertex
100
AcDb2dVertex
 10
-0.95033
 20
1.045759
 30
0.0
  0
VERTEX
  5
48
100
AcDbEntity
  8
EMBLEM
 62
     7
100
AcDbVertex
100
AcDb2dVertex
 10
-1.048859
 20
1.191486
 30
0.0
  0
VERTEX
  5
49
100
AcDbEntity
  8
EMBLEM
 62
     7
100
AcDbVertex
100
AcDb2dVertex
 10
-1.243507
 20
1.438155
 30
0.0
  0
VERTEX
  5
4A
100
AcDbEntity
  8
EMBLEM
 62
     7
100
AcDbVertex
100
AcDb2dVertex
 10
-1.435055
 20
1.632803
 30
0.0
  0
VERTEX
  5
4B
100
AcDbEntity
  8
EMBLEM
 62
     7
100
AcDbVertex
100
AcDb2dVertex
 10
-1.778186
 20
2.02141
 30
0.0
  0
VERTEX
  5
4C
100
AcDbEntity
  8
EMBLEM
 62
     7
100
AcDbVertex
100
AcDb2dVertex
 10
-2.022099
 20
2.265323
 30
0.0
  0
VERTEX
  5
4D
100
AcDbEntity
  8
EMBLEM
 62
     7
100
AcDbVertex
100
AcDb2dVertex
 10
-2.266012
 20
2.463071
 30
0.0
  0
VERTEX
  5
4E
100
AcDbEntity
  8
EMBLEM
 62
     7
100
AcDbVertex
100
AcDb2dVertex
 10
-2.556433
 20
2.655307
 30
0.0
  0
VERTEX
  5
4F
100
AcDbEntity
  8
EMBLEM
 62
     7
100
AcDbVertex
100
AcDb2dVertex
 10
-2.800346
 20
2.802757
 30
0.0
  0
VERTEX
  5
50
100
AcDbEntity
  8
EMBLEM
 62
     7
100
AcDbVertex
100
AcDb2dVertex
 10
-3.044603
 20
2.851678
 30
0.0
  0
VERTEX
  5
51
100
AcDbEntity
  8
EMBLEM
 62
     7
100
AcDbVertex
100
AcDb2dVertex
 10
-3.238562
 20
2.851678
 30
0.0
  0
VERTEX
  5
52
100
AcDbEntity
  8
EMBLEM
 62
     7
100
AcDbVertex
100
AcDb2dVertex
 10
-3.484886
 20
2.753493
 30
0.0
  0
VERTEX
  5
53
100
AcDbEntity
  8
EMBLEM
 62
     7
100
AcDbVertex
100
AcDb2dVertex
 10
-3.630958
 20
2.655307
 30
0.0
  0
VERTEX
  5
54
100
AcDbEntity
  8
EMBLEM
 62
     7
100
AcDbVertex
100
AcDb2dVertex
 10
-3.677123
 20
2.558845
 30
0.0
  0
VERTEX
  5
55
100
AcDbEntity
  8
EMBLEM
 62
     7
100
AcDbVertex
100
AcDb2dVertex
 10
-3.677123
 20
2.411395
 30
0.0
  0
VERTEX
  5
56
100
AcDbEntity
  8
EMBLEM
 62
     7
100
AcDbVertex
100
AcDb2dVertex
 10
-3.677123
 20
2.265323
 30
0.0
  0
VERTEX
  5
57
100
AcDbEntity
  8
EMBLEM
 62
     7
100
AcDbVertex
100
AcDb2dVertex
 10
-3.630958
 20
2.068263
 30
0.0
  0
VERTEX
  5
58
100
AcDbEntity
  8
EMBLEM
 62
     7
100
AcDbVertex
100
AcDb2dVertex
 10
-3.581349
 20
1.876716
 30
0.0
  0
VERTEX
  5
59
100
AcDbEntity
  8
EMBLEM
 62
     7
100
AcDbVertex
100
AcDb2dVertex
 10
-3.484886
 20
1.682068
 30
0.0
  0
VERTEX
  5
5A
100
AcDbEntity
  8
EMBLEM
 62
     7
100
AcDbVertex
100
AcDb2dVertex
 10
-3.33468
 20
1.339625
 30
0.0
  0
VERTEX
  5
5B
100
AcDbEntity
  8
EMBLEM
 62
     7
100
AcDbVertex
100
AcDb2dVertex
 10
-3.189297
 20
1.147389
 30
0.0
  0
VERTEX
  5
5C
100
AcDbEntity
  8
EMBLEM
 62
     7
100
AcDbVertex
100
AcDb2dVertex
 10
-3.093523
 20
0.90072
 30
0.0
  0
VERTEX
  5
5D
100
AcDbEntity
  8
EMBLEM
 62
     7
100
AcDbVertex
100
AcDb2dVertex
 10
-2.94814
 20
0.708828
 30
0.0
  0
VERTEX
  5
5E
100
AcDbEntity
  8
EMBLEM
 62
     7
100
AcDbVertex
100
AcDb2dVertex
 10
-2.800346
 20
0.46216
 30
0.0
  0
VERTEX
  5
5F
100
AcDbEntity
  8
EMBLEM
 62
     7
100
AcDbVertex
100
AcDb2dVertex
 10
-2.654963
 20
0.267167
 30
0.0
  0
VERTEX
  5
60
100
AcDbEntity
  8
EMBLEM
 62
     7
100
AcDbVertex
100
AcDb2dVertex
 10
-2.556433
 20
0.075964
 30
0.0
  0
VERTEX
  5
61
100
AcDbEntity
  8
EMBLEM
 62
     7
100
AcDbVertex
100
AcDb2dVertex
 10
-2.364197
 20
-0.12144
 30
0.0
  0
VERTEX
  5
62
100
AcDbEntity
  8
EMBLEM
 62
     7
100
AcDbVertex
100
AcDb2dVertex
 10
-7.184919
 20
-3.870737
 30
0.0
  0
VERTEX
  5
63
100
AcDbEntity
  8
EMBLEM
 62
     7
100
AcDbVertex
100
AcDb2dVertex
 10
-7.184919
 20
-6.504513
 30
0.0
  0
VERTEX
  5
64
100
AcDbEntity
  8
EMBLEM
 62
     7
100
AcDbVertex
100
AcDb2dVertex
 10
-1.144633
 20
-1.681379
 30
0.0
  0
VERTEX
  5
65
100
AcDbEntity
  8
EMBLEM
 62
     7
100
AcDbVertex
100
AcDb2dVertex
 10
-1.095368
 20
-1.776808
 30
0.0
  0
VERTEX
  5
66
100
AcDbEntity
  8
EMBLEM
 62
     7
100
AcDbVertex
100
AcDb2dVertex
 10
-0.95033
 20
-1.876027
 30
0.0
  0
VERTEX
  5
67
100
AcDbEntity
  8
EMBLEM
 62
     7
100
AcDbVertex
100
AcDb2dVertex
 10
-0.853867
 20
-2.020721
 30
0.0
  0
VERTEX
  5
68
100
AcDbEntity
  8
EMBLEM
 62
     7
100
AcDbVertex
100
AcDb2dVertex
 10
-0.656807
 20
-2.166448
 30
0.0
  0
VERTEX
  5
69
100
AcDbEntity
  8
EMBLEM
 62
     7
100
AcDbVertex
100
AcDb2dVertex
 10
-0.511769
 20
-2.361096
 30
0.0
  0
VERTEX
  5
6A
100
AcDbEntity
  8
EMBLEM
 62
     7
100
AcDbVertex
100
AcDb2dVertex
 10
-0.317121
 20
-2.5554
 30
0.0
  0
VERTEX
  5
6B
100
AcDbEntity
  8
EMBLEM
 62
     7
100
AcDbVertex
100
AcDb2dVertex
 10
-0.122129
 20
-2.750047
 30
0.0
  0
VERTEX
  5
6C
100
AcDbEntity
  8
EMBLEM
 62
     7
100
AcDbVertex
100
AcDb2dVertex
 10
0.168293
 20
-2.996716
 30
0.0
  0
VERTEX
  5
6D
100
AcDbEntity
  8
EMBLEM
 62
     7
100
AcDbVertex
100
AcDb2dVertex
 10
0.41255
 20
-3.142099
 30
0.0
  0
VERTEX
  5
6E
100
AcDbEntity
  8
EMBLEM
 62
     7
100
AcDbVertex
100
AcDb2dVertex
 10
0.609265
 20
-3.287482
 30
0.0
  0
VERTEX
  5
6F
100
AcDbEntity
  8
EMBLEM
 62
     7
100
AcDbVertex
100
AcDb2dVertex
 10
0.803913
 20
-3.432865
 30
0.0
  0
VERTEX
  5
70
100
AcDbEntity
  8
EMBLEM
 62
     7
100
AcDbVertex
100
AcDb2dVertex
 10
0.998561
 20
-3.484542
 30
0.0
  0
VERTEX
  5
71
100
AcDbEntity
  8
EMBLEM
 62
     7
100
AcDbVertex
100
AcDb2dVertex
 10
1.193209
 20
-3.531395
 30
0.0
  0
VERTEX
  5
72
100
AcDbEntity
  8
EMBLEM
 62
     7
100
AcDbVertex
100
AcDb2dVertex
 10
1.341003
 20
-3.484542
 30
0.0
  0
VERTEX
  5
73
100
AcDbEntity
  8
EMBLEM
 62
     7
100
AcDbVertex
100
AcDb2dVertex
 10
1.584916
 20
-3.336403
 30
0.0
  0
VERTEX
  5
74
100
AcDbEntity
  8
EMBLEM
 62
     7
100
AcDbVertex
100
AcDb2dVertex
 10
1.730644
 20
-3.237873
 30
0.0
  0
VERTEX
  5
75
100
AcDbEntity
  8
EMBLEM
 62
     7
100
AcDbVertex
100
AcDb2dVertex
 10
1.777153
 20
-3.09249
 30
0.0
  0
VERTEX
  5
76
100
AcDbEntity
  8
EMBLEM
 62
     7
100
AcDbVertex
100
AcDb2dVertex
 10
1.826073
 20
-2.898187
 30
0.0
  0
VERTEX
  5
77
100
AcDbEntity
  8
EMBLEM
 62
     7
100
AcDbVertex
100
AcDb2dVertex
 10
1.777153
 20
-2.654274
 30
0.0
  0
VERTEX
  5
78
100
AcDbEntity
  8
EMBLEM
 62
     7
100
AcDbVertex
100
AcDb2dVertex
 10
1.678623
 20
-2.410361
 30
0.0
  0
VERTEX
  5
79
100
AcDbEntity
  8
EMBLEM
 62
     7
100
AcDbVertex
100
AcDb2dVertex
 10
1.584916
 20
-2.11994
 30
0.0
  0
VERTEX
  5
7A
100
AcDbEntity
  8
EMBLEM
 62
     7
100
AcDbVertex
100
AcDb2dVertex
 10
1.437466
 20
-1.876027
 30
0.0
  0
VERTEX
  5
7B
100
AcDbEntity
  8
EMBLEM
 62
     7
100
AcDbVertex
100
AcDb2dVertex
 10
1.193209
 20
-1.43471
 30
0.0
  0
VERTEX
  5
7C
100
AcDbEntity
  8
EMBLEM
 62
     7
100
AcDbVertex
100
AcDb2dVertex
 10
0.998561
 20
-1.190797
 30
0.0
  0
VERTEX
  5
7D
100
AcDbEntity
  8
EMBLEM
 62
     7
100
AcDbVertex
100
AcDb2dVertex
 10
0.853178
 20
-0.998561
 30
0.0
  0
VERTEX
  5
7E
100
AcDbEntity
  8
EMBLEM
 62
     7
100
AcDbVertex
100
AcDb2dVertex
 10
0.708139
 20
-0.804258
 30
0.0
  0
VERTEX
  5
7F
100
AcDbEntity
  8
EMBLEM
 62
     7
100
AcDbVertex
100
AcDb2dVertex
 10
0.609265
 20
-0.705383
 30
0.0
  0
VERTEX
  5
80
100
AcDbEntity
  8
EMBLEM
 62
     7
100
AcDbVertex
100
AcDb2dVertex
 10
0.656463
 20
-0.656118
 30
0.0
  0
VERTEX
  5
81
100
AcDbEntity
  8
EMBLEM
 62
     7
100
AcDbVertex
100
AcDb2dVertex
 10
0.708139
 20
-0.60961
 30
0.0
  0
VERTEX
  5
82
100
AcDbEntity
  8
EMBLEM
 62
     7
100
AcDbVertex
100
AcDb2dVertex
 10
0.803913
 20
-0.51108
 30
0.0
  0
VERTEX
  5
83
100
AcDbEntity
  8
EMBLEM
 62
     7
100
AcDbVertex
100
AcDb2dVertex
 10
0.853178
 20
-0.412206
 30
0.0
  0
VERTEX
  5
84
100
AcDbEntity
  8
EMBLEM
 62
     7
100
AcDbVertex
100
AcDb2dVertex
 10
0.949296
 20
-0.365697
 30
0.0
  0
VERTEX
  5
85
100
AcDbEntity
  8
EMBLEM
 62
     7
100
AcDbVertex
100
AcDb2dVertex
 10
1.047826
 20
-0.267167
 30
0.0
  0
VERTEX
  5
86
100
AcDbEntity
  8
EMBLEM
 62
     7
100
AcDbVertex
100
AcDb2dVertex
 10
1.143599
 20
-0.167948
 30
0.0
  0
VERTEX
  5
87
100
AcDbEntity
  8
EMBLEM
 62
     7
100
AcDbVertex
100
AcDb2dVertex
 10
1.242818
 20
-0.072519
 30
0.0
  0
VERTEX
  5
88
100
AcDbEntity
  8
EMBLEM
 62
     7
100
AcDbVertex
100
AcDb2dVertex
 10
1.341003
 20
0.023599
 30
0.0
  0
VERTEX
  5
89
100
AcDbEntity
  8
EMBLEM
 62
     7
100
AcDbVertex
100
AcDb2dVertex
 10
1.437466
 20
0.122473
 30
0.0
  0
VERTEX
  5
8A
100
AcDbEntity
  8
EMBLEM
 62
     7
100
AcDbVertex
100
AcDb2dVertex
 10
1.53324
 20
0.168637
 30
0.0
  0
VERTEX
  5
8B
100
AcDbEntity
  8
EMBLEM
 62
     7
100
AcDbVertex
100
AcDb2dVertex
 10
1.584916
 20
0.267167
 30
0.0
  0
VERTEX
  5
8C
100
AcDbEntity
  8
EMBLEM
 62
     7
100
AcDbVertex
100
AcDb2dVertex
 10
1.678623
 20
0.317466
 30
0.0
  0
VERTEX
  5
8D
100
AcDbEntity
  8
EMBLEM
 62
     7
100
AcDbVertex
100
AcDb2dVertex
 10
1.730644
 20
0.415306
 30
0.0
  0
VERTEX
  5
8E
100
AcDbEntity
  8
EMBLEM
 62
     7
100
AcDbVertex
100
AcDb2dVertex
 10
1.826073
 20
0.51108
 30
0.0
  0
VERTEX
  5
8F
100
AcDbEntity
  8
EMBLEM
 62
     7
100
AcDbVertex
100
AcDb2dVertex
 10
2.363508
 20
0.075964
 30
0.0
  0
VERTEX
  5
90
100
AcDbEntity
  8
EMBLEM
 62
     7
100
AcDbVertex
100
AcDb2dVertex
 10
2.947107
 20
-0.219969
 30
0.0
  0
VERTEX
  5
91
100
AcDbEntity
  8
EMBLEM
 62
     7
100
AcDbVertex
100
AcDb2dVertex
 10
3.531395
 20
-0.365697
 30
0.0
  0
VERTEX
  5
92
100
AcDbEntity
  8
EMBLEM
 62
     7
100
AcDbVertex
100
AcDb2dVertex
 10
4.11775
 20
-0.412206
 30
0.0
  0
VERTEX
  5
93
100
AcDbEntity
  8
EMBLEM
 62
     7
100
AcDbVertex
100
AcDb2dVertex
 10
4.701694
 20
-0.365697
 30
0.0
  0
VERTEX
  5
94
100
AcDbEntity
  8
EMBLEM
 62
     7
100
AcDbVertex
100
AcDb2dVertex
 10
5.23844
 20
-0.167948
 30
0.0
  0
VERTEX
  5
95
100
AcDbEntity
  8
EMBLEM
 62
     7
100
AcDbVertex
100
AcDb2dVertex
 10
5.772774
 20
0.075964
 30
0.0
  0
VERTEX
  5
96
100
AcDbEntity
  8
EMBLEM
 62
     7
100
AcDbVertex
100
AcDb2dVertex
 10
6.406327
 20
0.610299
 30
0.0
  0
VERTEX
  5
97
100
AcDbEntity
  8
EMBLEM
 62
     7
100
AcDbVertex
100
AcDb2dVertex
 10
6.746014
 20
1.045759
 30
0.0
  0
VERTEX
  5
98
100
AcDbEntity
  8
EMBLEM
 62
     7
100
AcDbVertex
100
AcDb2dVertex
 10
6.992683
 20
1.585605
 30
0.0
  0
VERTEX
  5
99
100
AcDbEntity
  8
EMBLEM
 62
     7
100
AcDbVertex
100
AcDb2dVertex
 10
7.184919
 20
2.11994
 30
0.0
  0
VERTEX
  5
9A
100
AcDbEntity
  8
EMBLEM
 62
     7
100
AcDbVertex
100
AcDb2dVertex
 10
7.184919
 20
2.704228
 30
0.0
  0
SEQEND
  5
9B
100
AcDbEntity
  8
EMBLEM
 62
     7
  0
SPLINE
  5
32
100
AcDbEntity
  8
EMBLEM
 62
     7
100
AcDbSpline
210
0.0
220
0.0
230
1.0
 70
     8
 71
     3
 72
    23
 73
    19
 74
     0
 42
0.00000001
 43
0.00000001
 40
0.0
 40
0.0
 40
0.0
 40
0.0
 40
1.0
 40
1.0
 40
1.0
 40
2.0
 40
2.0
 40
2.0
 40
3.0
 40
3.0
 40
3.0
 40
4.0
 40
4.0
 40
4.0
 40
5.0
 40
5.0
 40
5.0
 40
6.0
 40
6.0
 40
6.0
 40
6.0
 10
4.8470770941840273
 20
1.9749009874131942
 30
0.0
 10
4.4081719292534718
 20
1.4381551106770831
 30
0.0
 10
4.018531629774305
 20
1.4381551106770831
 30
0.0
 10
3.4321763780381942
 20
1.8267618815104165
 30
0.0
 10
3.2402845594618053
 20
1.8267618815104165
 30
0.0
 10
3.5834160698784721
 20
2.411394585503472
 30
0.0
 10
3.2402845594618053
 20
2.8516777886284719
 30
0.0
 10
2.9967163085937498
 20
3.3863566080729162
 30
0.0
 10
2.2649780273437496
 20
3.0442586263020832
 30
0.0
 10
2.2649780273437496
 20
3.1896416558159721
 30
0.0
 10
2.2649780273437496
 20
3.630269368489583
 30
0.0
 10
2.2649780273437496
 20
4.1649481879340273
 30
0.0
 10
2.8020684136284721
 20
4.4553697374131938
 30
0.0
 10
3.4321763780381942
 20
4.9459513346354163
 30
0.0
 10
4.4081719292534718
 20
4.7985012478298605
 30
0.0
 10
4.994527180989583
 20
4.0199096679687498
 30
0.0
 10
5.4306762695312498
 20
3.3863566080729162
 30
0.0
 10
5.3342135959201382
 20
2.411394585503472
 30
0.0
 10
4.8470770941840273
 20
1.9749009874131942
 30
0.0
  0
ENDBLK
  5
9C
100
AcDbEntity
  8
EMBLEM
100
AcDbBlockEnd
  0
BLOCK
  5
148
100
AcDbEntity
  8
EMBLEM
 62
     7
100
AcDbBlockBegin
  2
AI9-BLK4
 70
     0
 10
0.0
 20
0.0
 30
0.0
  3
AI9-BLK4
  1

  0
SPLINE
  5
18C
100
AcDbEntity
  8
EMBLEM
 62
     7
100
AcDbSpline
210
0.0
220
0.0
230
1.0
 70
     8
 71
     3
 72
    20
 73
    16
 74
     0
 42
0.00000001
 43
0.00000001
 40
0.0
 40
0.0
 40
0.0
 40
0.0
 40
1.0
 40
1.0
 40
1.0
 40
2.0
 40
2.0
 40
2.0
 40
3.0
 40
3.0
 40
3.0
 40
4.0
 40
4.0
 40
4.0
 40
5.0
 40
5.0
 40
5.0
 40
5.0
 10
-11.642527940538193
 20
7.5212463378906245
 30
0.0
 10
-10.753693305121526
 20
8.0507575141059018
 30
0.0
 10
-10.315132649739583
 20
8.6402133517795132
 30
0.0
 10
-10.132198079427083
 20
9.6155198838975693
 30
0.0
 10
-9.7768364800347207
 20
9.7488450792100689
 30
0.0
 10
-9.5964857313368039
 20
9.0780849880642354
 30
0.0
 10
-9.5964857313368039
 20
8.7356424967447914
 30
0.0
 10
-10.229866536458333
 20
8.2998379177517361
 30
0.0
 10
-10.325812445746527
 20
8.0090718587239582
 30
0.0
 10
-10.668254937065971
 20
7.32453138563368
 30
0.0
 10
-11.009319390190971
 20
7.1322950575086796
 30
0.0
 10
-11.789289008246527
 20
7.1322950575086796
 30
0.0
 10
-11.642527940538193
 20
7.5212463378906245
 30
0.0
 10
-11.642527940538193
 20
7.5212463378906245
 30
0.0
 10
-11.642527940538193
 20
7.5212463378906245
 30
0.0
 10
-11.642527940538193
 20
7.5212463378906245
 30
0.0
  0
SPLINE
  5
18B
100
AcDbEntity
  8
EMBLEM
 62
     7
100
AcDbSpline
210
0.0
220
0.0
230
1.0
 70
     8
 71
     3
 72
    20
 73
    16
 74
     0
 42
0.00000001
 43
0.00000001
 40
0.0
 40
0.0
 40
0.0
 40
0.0
 40
1.0
 40
1.0
 40
1.0
 40
2.0
 40
2.0
 40
2.0
 40
3.0
 40
3.0
 40
3.0
 40
4.0
 40
4.0
 40
4.0
 40
5.0
 40
5.0
 40
5.0
 40
5.0
 10
-13.045198567708333
 20
8.5540859646267347
 30
0.0
 10
-12.215791829427083
 20
9.3323330349392357
 30
0.0
 10
-11.803413899739581
 20
9.6179314507378457
 30
0.0
 10
-11.545376247829861
 20
10.61735365125868
 30
0.0
 10
-11.350556098090276
 20
10.909153238932291
 30
0.0
 10
-10.513742404513888
 20
10.38515421549479
 30
0.0
 10
-10.668254937065971
 20
9.8363505045572914
 30
0.0
 10
-10.600558810763888
 20
9.3192416720920139
 30
0.0
 10
-11.321961805555555
 20
8.5075771755642347
 30
0.0
 10
-11.983764648437498
 20
7.9363803439670129
 30
0.0
 10
-12.519476996527777
 20
7.6097852918836795
 30
0.0
 10
-13.19023708767361
 20
8.3566819932725682
 30
0.0
 10
-13.045198567708333
 20
8.5540859646267347
 30
0.0
 10
-13.045198567708333
 20
8.5540859646267347
 30
0.0
 10
-13.045198567708333
 20
8.5540859646267347
 30
0.0
 10
-13.045198567708333
 20
8.5540859646267347
 30
0.0
  0
SPLINE
  5
18A
100
AcDbEntity
  8
EMBLEM
 62
     7
100
AcDbSpline
210
0.0
220
0.0
230
1.0
 70
     8
 71
     3
 72
    20
 73
    16
 74
     0
 42
0.00000001
 43
0.00000001
 40
0.0
 40
0.0
 40
0.0
 40
0.0
 40
1.0
 40
1.0
 40
1.0
 40
2.0
 40
2.0
 40
2.0
 40
3.0
 40
3.0
 40
3.0
 40
4.0
 40
4.0
 40
4.0
 40
5.0
 40
5.0
 40
5.0
 40
5.0
 10
-14.419102647569444
 20
9.6892449273003471
 30
0.0
 10
-13.569025336371526
 20
10.447854953342013
 30
0.0
 10
-13.536469184027776
 20
10.547073703342013
 30
0.0
 10
-13.000929090711804
 20
11.522724745008679
 30
0.0
 10
-12.854168023003471
 20
11.95990736219618
 30
0.0
 10
-11.691965060763888
 20
11.443832058376735
 30
0.0
 10
-12.081088595920138
 20
10.811657036675346
 30
0.0
 10
-12.351011827256944
 20
9.9242004394531236
 30
0.0
 10
-12.519476996527777
 20
9.7398878309461789
 30
0.0
 10
-13.445863172743055
 20
8.95888468424479
 30
0.0
 10
-14.007758246527777
 20
8.5954271104600686
 30
0.0
 10
-14.684891764322915
 20
9.3764302571614575
 30
0.0
 10
-14.419102647569444
 20
9.6892449273003471
 30
0.0
 10
-14.419102647569444
 20
9.6892449273003471
 30
0.0
 10
-14.419102647569444
 20
9.6892449273003471
 30
0.0
 10
-14.419102647569444
 20
9.6892449273003471
 30
0.0
  0
SPLINE
  5
189
100
AcDbEntity
  8
EMBLEM
 62
     7
100
AcDbSpline
210
0.0
220
0.0
230
1.0
 70
     8
 71
     3
 72
    20
 73
    16
 74
     0
 42
0.00000001
 43
0.00000001
 40
0.0
 40
0.0
 40
0.0
 40
0.0
 40
1.0
 40
1.0
 40
1.0
 40
2.0
 40
2.0
 40
2.0
 40
3.0
 40
3.0
 40
3.0
 40
4.0
 40
4.0
 40
4.0
 40
5.0
 40
5.0
 40
5.0
 40
5.0
 10
-15.490527343749999
 20
10.811657036675346
 30
0.0
 10
-14.516426595052081
 20
11.591626654730902
 30
0.0
 10
-14.613406032986109
 20
11.686366780598958
 30
0.0
 10
-14.272513834635415
 20
12.320436604817708
 30
0.0
 10
-14.077693684895833
 20
12.661845567491318
 30
0.0
 10
-13.299274359809026
 20
12.22345716688368
 30
0.0
 10
-13.445863172743055
 20
11.78317396375868
 30
0.0
 10
-13.832230631510415
 20
10.975643581814236
 30
0.0
 10
-13.981920030381943
 20
10.811657036675346
 30
0.0
 10
-14.710902235243054
 20
10.178792995876735
 30
0.0
 10
-15.05213894314236
 20
9.8363505045572914
 30
0.0
 10
-15.831936306423609
 20
10.470248074001734
 30
0.0
 10
-15.490527343749999
 20
10.811657036675346
 30
0.0
 10
-15.490527343749999
 20
10.811657036675346
 30
0.0
 10
-15.490527343749999
 20
10.811657036675346
 30
0.0
 10
-15.490527343749999
 20
10.811657036675346
 30
0.0
  0
SPLINE
  5
188
100
AcDbEntity
  8
EMBLEM
 62
     7
100
AcDbSpline
210
0.0
220
0.0
230
1.0
 70
     8
 71
     3
 72
    20
 73
    16
 74
     0
 42
0.00000001
 43
0.00000001
 40
0.0
 40
0.0
 40
0.0
 40
0.0
 40
1.0
 40
1.0
 40
1.0
 40
2.0
 40
2.0
 40
2.0
 40
3.0
 40
3.0
 40
3.0
 40
4.0
 40
4.0
 40
4.0
 40
5.0
 40
5.0
 40
5.0
 40
5.0
 10
-16.465144856770831
 20
11.78317396375868
 30
0.0
 10
-16.026411946614584
 20
12.22345716688368
 30
0.0
 10
-15.554089355468749
 20
12.695435248480901
 30
0.0
 10
-15.421625434027776
 20
13.178093126085068
 30
0.0
 10
-15.221982150607637
 20
13.376530626085069
 30
0.0
 10
-14.576026746961805
 20
13.047007242838541
 30
0.0
 10
-14.664221191406249
 20
12.763131374782985
 30
0.0
 10
-14.77308620876736
 20
12.106496175130207
 30
0.0
 10
-15.194765896267359
 20
11.655016411675346
 30
0.0
 10
-15.92684868706597
 20
11.215077718098957
 30
0.0
 10
-16.145784505208333
 20
11.061770968967013
 30
0.0
 10
-16.610355631510416
 20
11.591626654730902
 30
0.0
 10
-16.465144856770831
 20
11.78317396375868
 30
0.0
 10
-16.465144856770831
 20
11.78317396375868
 30
0.0
 10
-16.465144856770831
 20
11.78317396375868
 30
0.0
 10
-16.465144856770831
 20
11.78317396375868
 30
0.0
  0
SPLINE
  5
187
100
AcDbEntity
  8
EMBLEM
 62
     7
100
AcDbSpline
210
0.0
220
0.0
230
1.0
 70
     8
 71
     3
 72
    20
 73
    16
 74
     0
 42
0.00000001
 43
0.00000001
 40
0.0
 40
0.0
 40
0.0
 40
0.0
 40
1.0
 40
1.0
 40
1.0
 40
2.0
 40
2.0
 40
2.0
 40
3.0
 40
3.0
 40
3.0
 40
4.0
 40
4.0
 40
4.0
 40
5.0
 40
5.0
 40
5.0
 40
5.0
 10
-16.165593804253472
 20
12.630667453342014
 30
0.0
 10
-16.619312879774306
 20
12.070150417751735
 30
0.0
 10
-17.086640082465276
 20
12.02346937391493
 30
0.0
 10
-17.466634114583332
 20
12.369873725043401
 30
0.0
 10
-17.980470106336803
 20
12.834272596571179
 30
0.0
 10
-18.08416748046875
 20
13.263876003689235
 30
0.0
 10
-17.676784939236111
 20
13.790458848741318
 30
0.0
 10
-17.25234917534722
 20
14.338056776258679
 30
0.0
 10
-16.763662380642359
 20
14.249862331814235
 30
0.0
 10
-16.248276095920136
 20
13.878653293185762
 30
0.0
 10
-15.881028917100693
 20
13.615447998046873
 30
0.0
 10
-15.713769531249998
 20
13.18963419596354
 30
0.0
 10
-16.165593804253472
 20
12.630667453342014
 30
0.0
 10
-16.165593804253472
 20
12.630667453342014
 30
0.0
 10
-16.165593804253472
 20
12.630667453342014
 30
0.0
 10
-16.165593804253472
 20
12.630667453342014
 30
0.0
  0
SPLINE
  5
186
100
AcDbEntity
  8
EMBLEM
 62
     7
100
AcDbSpline
210
0.0
220
0.0
230
1.0
 70
     8
 71
     3
 72
    32
 73
    28
 74
     0
 42
0.00000001
 43
0.00000001
 40
0.0
 40
0.0
 40
0.0
 40
0.0
 40
1.0
 40
1.0
 40
1.0
 40
2.0
 40
2.0
 40
2.0
 40
3.0
 40
3.0
 40
3.0
 40
4.0
 40
4.0
 40
4.0
 40
5.0
 40
5.0
 40
5.0
 40
6.0
 40
6.0
 40
6.0
 40
7.0
 40
7.0
 40
7.0
 40
8.0
 40
8.0
 40
8.0
 40
9.0
 40
9.0
 40
9.0
 40
9.0
 10
-6.9162014431423602
 20
12.905758327907986
 30
0.0
 10
-7.1611477322048609
 20
13.197557915581596
 30
0.0
 10
-7.3559678819444434
 20
12.760375298394097
 30
0.0
 10
-7.3559678819444434
 20
12.760375298394097
 30
0.0
 10
-7.3559678819444434
 20
11.34633585611979
 30
0.0
 10
-7.6956542968749995
 20
9.8363505045572914
 30
0.0
 10
-8.4754516601562493
 20
8.8138461642795125
 30
0.0
 10
-8.67268337673611
 20
8.6164421929253461
 30
0.0
 10
-8.67268337673611
 20
8.6164421929253461
 30
0.0
 10
-8.4754516601562493
 20
8.4242058648003457
 30
0.0
 10
-8.2318834092881943
 20
8.2791673448350682
 30
0.0
 10
-7.7671400282118048
 20
8.3670172797309021
 30
0.0
 10
-7.71925320095486
 20
7.8302714029947911
 30
0.0
 10
-7.5244330512152775
 20
7.8302714029947911
 30
0.0
 10
-7.4038547092013882
 20
7.9835781521267357
 30
0.0
 10
-7.4038547092013882
 20
7.9835781521267357
 30
0.0
 10
-6.5279391818576382
 20
9.397445339626735
 30
0.0
 10
-5.7483140733506941
 20
9.8363505045572914
 30
0.0
 10
-4.3354804144965273
 20
10.372062852647568
 30
0.0
 10
-4.1888916015624993
 20
10.372062852647568
 30
0.0
 10
-3.9956217447916664
 20
10.61735365125868
 30
0.0
 10
-4.1888916015624993
 20
10.811657036675346
 30
0.0
 10
-4.9686889648437491
 20
11.34633585611979
 30
0.0
 10
-6.3811781141493054
 20
12.22345716688368
 30
0.0
 10
-6.9162014431423602
 20
12.905758327907986
 30
0.0
 10
-6.9162014431423602
 20
12.905758327907986
 30
0.0
 10
-6.9162014431423602
 20
12.905758327907986
 30
0.0
 10
-6.9162014431423602
 20
12.905758327907986
 30
0.0
  0
SPLINE
  5
185
100
AcDbEntity
  8
EMBLEM
 62
     7
100
AcDbSpline
210
0.0
220
0.0
230
1.0
 70
     8
 71
     3
 72
    32
 73
    28
 74
     0
 42
0.00000001
 43
0.00000001
 40
0.0
 40
0.0
 40
0.0
 40
0.0
 40
1.0
 40
1.0
 40
1.0
 40
2.0
 40
2.0
 40
2.0
 40
3.0
 40
3.0
 40
3.0
 40
4.0
 40
4.0
 40
4.0
 40
5.0
 40
5.0
 40
5.0
 40
6.0
 40
6.0
 40
6.0
 40
7.0
 40
7.0
 40
7.0
 40
8.0
 40
8.0
 40
8.0
 40
9.0
 40
9.0
 40
9.0
 40
9.0
 10
-14.272513834635415
 20
3.4550001356336804
 30
0.0
 10
-14.419102647569444
 20
3.696501329210069
 30
0.0
 10
-14.077693684895833
 20
3.8939053005642359
 30
0.0
 10
-13.981920030381943
 20
3.8939053005642359
 30
0.0
 10
-12.665032280815971
 20
4.2335917154947911
 30
0.0
 10
-11.44770779079861
 20
5.01459486219618
 30
0.0
 10
-10.668254937065971
 20
6.182482231987847
 30
0.0
 10
-10.473607042100694
 20
6.3275207519531245
 30
0.0
 10
-10.473607042100694
 20
6.3275207519531245
 30
0.0
 10
-10.325812445746527
 20
6.3275207519531245
 30
0.0
 10
-9.9380669487847211
 20
5.7931864420572907
 30
0.0
 10
-9.9380669487847211
 20
5.7931864420572907
 30
0.0
 10
-9.4498969184027768
 20
5.6481479220920132
 30
0.0
 10
-9.3525729709201375
 20
5.4531555175781241
 30
0.0
 10
-9.4498969184027768
 20
5.3050164116753464
 30
0.0
 10
-9.4498969184027768
 20
5.3050164116753464
 30
0.0
 10
-10.570586480034722
 20
4.0885531955295136
 30
0.0
 10
-11.106987847222221
 20
3.112557644314236
 30
0.0
 10
-11.106987847222221
 20
1.7014465332031248
 30
0.0
 10
-11.106987847222221
 20
1.5064541286892359
 30
0.0
 10
-11.253576660156249
 20
1.2625413682725692
 30
0.0
 10
-11.44770779079861
 20
1.4575337727864581
 30
0.0
 10
-12.081088595920138
 20
2.0438890245225694
 30
0.0
 10
-13.445863172743055
 20
3.112557644314236
 30
0.0
 10
-14.272513834635415
 20
3.4550001356336804
 30
0.0
 10
-14.272513834635415
 20
3.4550001356336804
 30
0.0
 10
-14.272513834635415
 20
3.4550001356336804
 30
0.0
 10
-14.272513834635415
 20
3.4550001356336804
 30
0.0
  0
SPLINE
  5
184
100
AcDbEntity
  8
EMBLEM
 62
     7
100
AcDbSpline
210
0.0
220
0.0
230
1.0
 70
     8
 71
     3
 72
    20
 73
    16
 74
     0
 42
0.00000001
 43
0.00000001
 40
0.0
 40
0.0
 40
0.0
 40
0.0
 40
1.0
 40
1.0
 40
1.0
 40
2.0
 40
2.0
 40
2.0
 40
3.0
 40
3.0
 40
3.0
 40
4.0
 40
4.0
 40
4.0
 40
5.0
 40
5.0
 40
5.0
 40
5.0
 10
-8.1355929904513875
 20
6.4267395019531248
 30
0.0
 10
-8.4639105902777771
 20
5.9802551269531241
 30
0.0
 10
-9.2071899414062486
 20
5.9254781087239579
 30
0.0
 10
-9.6455783420138879
 20
6.218655734592013
 30
0.0
 10
-10.132198079427083
 20
6.7533345540364573
 30
0.0
 10
-10.132198079427083
 20
7.2053310818142355
 30
0.0
 10
-9.8894911024305543
 20
7.645614284939235
 30
0.0
 10
-9.5473931206597218
 20
8.1802931043836793
 30
0.0
 10
-8.7920559353298611
 20
8.2374816894531246
 30
0.0
 10
-8.3534952799479161
 20
7.8950391981336798
 30
0.0
 10
-7.9149346245659711
 20
7.6046176486545134
 30
0.0
 10
-7.763178168402777
 20
6.9348910861545132
 30
0.0
 10
-8.1355929904513875
 20
6.4267395019531248
 30
0.0
 10
-8.1355929904513875
 20
6.4267395019531248
 30
0.0
 10
-8.1355929904513875
 20
6.4267395019531248
 30
0.0
 10
-8.1355929904513875
 20
6.4267395019531248
 30
0.0
  0
POLYLINE
  5
15F
100
AcDbEntity
  8
EMBLEM
 62
     7
100
AcDb2dPolyline
 66
     1
 10
0.0
 20
0.0
 30
0.0
 70
     1
  0
VERTEX
  5
160
100
AcDbEntity
  8
EMBLEM
 62
     7
100
AcDbVertex
100
AcDb2dVertex
 10
8.427909
 20
-5.509827
 30
0.0
  0
VERTEX
  5
161
100
AcDbEntity
  8
EMBLEM
 62
     7
100
AcDbVertex
100
AcDb2dVertex
 10
16.660654
 20
-11.986951
 30
0.0
  0
VERTEX
  5
162
100
AcDbEntity
  8
EMBLEM
 62
     7
100
AcDbVertex
100
AcDb2dVertex
 10
16.855646
 20
-12.184011
 30
0.0
  0
VERTEX
  5
163
100
AcDbEntity
  8
EMBLEM
 62
     7
100
AcDbVertex
100
AcDb2dVertex
 10
17.050294
 20
-12.329049
 30
0.0
  0
VERTEX
  5
164
100
AcDbEntity
  8
EMBLEM
 62
     7
100
AcDbVertex
100
AcDb2dVertex
 10
17.197744
 20
-12.474777
 30
0.0
  0
VERTEX
  5
165
100
AcDbEntity
  8
EMBLEM
 62
     7
100
AcDbVertex
100
AcDb2dVertex
 10
17.343472
 20
-12.619471
 30
0.0
  0
VERTEX
  5
166
100
AcDbEntity
  8
EMBLEM
 62
     7
100
AcDbVertex
100
AcDb2dVertex
 10
17.48851
 20
-12.765198
 30
0.0
  0
VERTEX
  5
167
100
AcDbEntity
  8
EMBLEM
 62
     7
100
AcDbVertex
100
AcDb2dVertex
 10
17.587385
 20
-12.912649
 30
0.0
  0
VERTEX
  5
168
100
AcDbEntity
  8
EMBLEM
 62
     7
100
AcDbVertex
100
AcDb2dVertex
 10
17.682814
 20
-13.058032
 30
0.0
  0
VERTEX
  5
169
100
AcDbEntity
  8
EMBLEM
 62
     7
100
AcDbVertex
100
AcDb2dVertex
 10
17.778932
 20
-13.3047
 30
0.0
  0
VERTEX
  5
16A
100
AcDbEntity
  8
EMBLEM
 62
     7
100
AcDbVertex
100
AcDb2dVertex
 10
17.831297
 20
-13.400474
 30
0.0
  0
VERTEX
  5
16B
100
AcDbEntity
  8
EMBLEM
 62
     7
100
AcDbVertex
100
AcDb2dVertex
 10
17.877806
 20
-13.546202
 30
0.0
  0
VERTEX
  5
16C
100
AcDbEntity
  8
EMBLEM
 62
     7
100
AcDbVertex
100
AcDb2dVertex
 10
17.927071
 20
-13.641975
 30
0.0
  0
VERTEX
  5
16D
100
AcDbEntity
  8
EMBLEM
 62
     7
100
AcDbVertex
100
AcDb2dVertex
 10
17.927071
 20
-13.741194
 30
0.0
  0
VERTEX
  5
16E
100
AcDbEntity
  8
EMBLEM
 62
     7
100
AcDbVertex
100
AcDb2dVertex
 10
17.927071
 20
-13.839379
 30
0.0
  0
VERTEX
  5
16F
100
AcDbEntity
  8
EMBLEM
 62
     7
100
AcDbVertex
100
AcDb2dVertex
 10
17.877806
 20
-13.937564
 30
0.0
  0
VERTEX
  5
170
100
AcDbEntity
  8
EMBLEM
 62
     7
100
AcDbVertex
100
AcDb2dVertex
 10
17.877806
 20
-13.985107
 30
0.0
  0
VERTEX
  5
171
100
AcDbEntity
  8
EMBLEM
 62
     7
100
AcDbVertex
100
AcDb2dVertex
 10
17.778932
 20
-14.083636
 30
0.0
  0
VERTEX
  5
172
100
AcDbEntity
  8
EMBLEM
 62
     7
100
AcDbVertex
100
AcDb2dVertex
 10
17.732423
 20
-14.129801
 30
0.0
  0
VERTEX
  5
173
100
AcDbEntity
  8
EMBLEM
 62
     7
100
AcDbVertex
100
AcDb2dVertex
 10
17.633894
 20
-14.129801
 30
0.0
  0
VERTEX
  5
174
100
AcDbEntity
  8
EMBLEM
 62
     7
100
AcDbVertex
100
AcDb2dVertex
 10
17.534675
 20
-14.179066
 30
0.0
  0
VERTEX
  5
175
100
AcDbEntity
  8
EMBLEM
 62
     7
100
AcDbVertex
100
AcDb2dVertex
 10
17.389981
 20
-14.179066
 30
0.0
  0
VERTEX
  5
176
100
AcDbEntity
  8
EMBLEM
 62
     7
100
AcDbVertex
100
AcDb2dVertex
 10
17.244253
 20
-14.179066
 30
0.0
  0
VERTEX
  5
177
100
AcDbEntity
  8
EMBLEM
 62
     7
100
AcDbVertex
100
AcDb2dVertex
 10
17.146068
 20
-14.179066
 30
0.0
  0
VERTEX
  5
178
100
AcDbEntity
  8
EMBLEM
 62
     7
100
AcDbVertex
100
AcDb2dVertex
 10
16.904567
 20
-14.129801
 30
0.0
  0
VERTEX
  5
179
100
AcDbEntity
  8
EMBLEM
 62
     7
100
AcDbVertex
100
AcDb2dVertex
 10
16.709919
 20
-14.083636
 30
0.0
  0
VERTEX
  5
17A
100
AcDbEntity
  8
EMBLEM
 62
     7
100
AcDbVertex
100
AcDb2dVertex
 10
16.562124
 20
-14.034027
 30
0.0
  0
VERTEX
  5
17B
100
AcDbEntity
  8
EMBLEM
 62
     7
100
AcDbVertex
100
AcDb2dVertex
 10
16.367476
 20
-13.985107
 30
0.0
  0
VERTEX
  5
17C
100
AcDbEntity
  8
EMBLEM
 62
     7
100
AcDbVertex
100
AcDb2dVertex
 10
16.222093
 20
-13.937564
 30
0.0
  0
VERTEX
  5
17D
100
AcDbEntity
  8
EMBLEM
 62
     7
100
AcDbVertex
100
AcDb2dVertex
 10
16.025378
 20
-13.839379
 30
0.0
  0
VERTEX
  5
17E
100
AcDbEntity
  8
EMBLEM
 62
     7
100
AcDbVertex
100
AcDb2dVertex
 10
15.879651
 20
-13.741194
 30
0.0
  0
VERTEX
  5
17F
100
AcDbEntity
  8
EMBLEM
 62
     7
100
AcDbVertex
100
AcDb2dVertex
 10
15.635738
 20
-13.546202
 30
0.0
  0
VERTEX
  5
180
100
AcDbEntity
  8
EMBLEM
 62
     7
100
AcDbVertex
100
AcDb2dVertex
 10
11.837176
 20
-10.574462
 30
0.0
  0
VERTEX
  5
181
100
AcDbEntity
  8
EMBLEM
 62
     7
100
AcDbVertex
100
AcDb2dVertex
 10
8.427909
 20
-7.847669
 30
0.0
  0
VERTEX
  5
182
100
AcDbEntity
  8
EMBLEM
 62
     7
100
AcDbVertex
100
AcDb2dVertex
 10
8.427909
 20
-5.509827
 30
0.0
  0
SEQEND
  5
183
100
AcDbEntity
  8
EMBLEM
 62
     7
  0
POLYLINE
  5
149
100
AcDbEntity
  8
EMBLEM
 62
     7
100
AcDb2dPolyline
 66
     1
 10
0.0
 20
0.0
 30
0.0
 70
     1
  0
VERTEX
  5
14A
100
AcDbEntity
  8
EMBLEM
 62
     7
100
AcDbVertex
100
AcDb2dVertex
 10
-0.146244
 20
-1.026036
 30
0.0
  0
VERTEX
  5
14B
100
AcDbEntity
  8
EMBLEM
 62
     7
100
AcDbVertex
100
AcDb2dVertex
 10
-8.231883
 20
5.352559
 30
0.0
  0
VERTEX
  5
14C
100
AcDbEntity
  8
EMBLEM
 62
     7
100
AcDbVertex
100
AcDb2dVertex
 10
-8.231883
 20
5.404235
 30
0.0
  0
VERTEX
  5
14D
100
AcDbEntity
  8
EMBLEM
 62
     7
100
AcDbVertex
100
AcDb2dVertex
 10
-8.231883
 20
5.502765
 30
0.0
  0
VERTEX
  5
14E
100
AcDbEntity
  8
EMBLEM
 62
     7
100
AcDbVertex
100
AcDb2dVertex
 10
-8.18348
 20
5.598539
 30
0.0
  0
VERTEX
  5
14F
100
AcDbEntity
  8
EMBLEM
 62
     7
100
AcDbVertex
100
AcDb2dVertex
 10
-8.135593
 20
5.694657
 30
0.0
  0
VERTEX
  5
150
100
AcDbEntity
  8
EMBLEM
 62
     7
100
AcDbVertex
100
AcDb2dVertex
 10
-8.087362
 20
5.793186
 30
0.0
  0
VERTEX
  5
151
100
AcDbEntity
  8
EMBLEM
 62
     7
100
AcDbVertex
100
AcDb2dVertex
 10
-7.989176
 20
5.892061
 30
0.0
  0
VERTEX
  5
152
100
AcDbEntity
  8
EMBLEM
 62
     7
100
AcDbVertex
100
AcDb2dVertex
 10
-7.939567
 20
5.985423
 30
0.0
  0
VERTEX
  5
153
100
AcDbEntity
  8
EMBLEM
 62
     7
100
AcDbVertex
100
AcDb2dVertex
 10
-7.794356
 20
6.133562
 30
0.0
  0
VERTEX
  5
154
100
AcDbEntity
  8
EMBLEM
 62
     7
100
AcDbVertex
100
AcDb2dVertex
 10
-7.695654
 20
6.232092
 30
0.0
  0
VERTEX
  5
155
100
AcDbEntity
  8
EMBLEM
 62
     7
100
AcDbVertex
100
AcDb2dVertex
 10
-7.647767
 20
6.327521
 30
0.0
  0
VERTEX
  5
156
100
AcDbEntity
  8
EMBLEM
 62
     7
100
AcDbVertex
100
AcDb2dVertex
 10
-7.550444
 20
6.379542
 30
0.0
  0
VERTEX
  5
157
100
AcDbEntity
  8
EMBLEM
 62
     7
100
AcDbVertex
100
AcDb2dVertex
 10
-7.453292
 20
6.476004
 30
0.0
  0
VERTEX
  5
158
100
AcDbEntity
  8
EMBLEM
 62
     7
100
AcDbVertex
100
AcDb2dVertex
 10
-7.355968
 20
6.524925
 30
0.0
  0
VERTEX
  5
159
100
AcDbEntity
  8
EMBLEM
 62
     7
100
AcDbVertex
100
AcDb2dVertex
 10
-7.306186
 20
6.571434
 30
0.0
  0
VERTEX
  5
15A
100
AcDbEntity
  8
EMBLEM
 62
     7
100
AcDbVertex
100
AcDb2dVertex
 10
-7.161148
 20
6.670652
 30
0.0
  0
VERTEX
  5
15B
100
AcDbEntity
  8
EMBLEM
 62
     7
100
AcDbVertex
100
AcDb2dVertex
 10
-3.847655
 20
4.137818
 30
0.0
  0
VERTEX
  5
15C
100
AcDbEntity
  8
EMBLEM
 62
     7
100
AcDbVertex
100
AcDb2dVertex
 10
-0.146244
 20
1.262541
 30
0.0
  0
VERTEX
  5
15D
100
AcDbEntity
  8
EMBLEM
 62
     7
100
AcDbVertex
100
AcDb2dVertex
 10
-0.146244
 20
-1.026036
 30
0.0
  0
SEQEND
  5
15E
100
AcDbEntity
  8
EMBLEM
 62
     7
  0
ENDBLK
  5
18D
100
AcDbEntity
  8
EMBLEM
100
AcDbBlockEnd
  0
BLOCK
  5
190
100
AcDbEntity
  8
EMBLEM
 62
     7
100
AcDbBlockBegin
  2
AI9-BLK5
 70
     0
 10
0.0
 20
0.0
 30
0.0
  3
AI9-BLK5
  1

  0
SPLINE
  5
1C0
100
AcDbEntity
  8
EMBLEM
 62
     7
100
AcDbSpline
210
0.0
220
0.0
230
1.0
 70
     8
 71
     3
 72
    59
 73
    55
 74
     0
 42
0.00000001
 43
0.00000001
 40
0.0
 40
0.0
 40
0.0
 40
0.0
 40
1.0
 40
1.0
 40
1.0
 40
2.0
 40
2.0
 40
2.0
 40
3.0
 40
3.0
 40
3.0
 40
4.0
 40
4.0
 40
4.0
 40
5.0
 40
5.0
 40
5.0
 40
6.0
 40
6.0
 40
6.0
 40
7.0
 40
7.0
 40
7.0
 40
8.0
 40
8.0
 40
8.0
 40
9.0
 40
9.0
 40
9.0
 40
10.0
 40
10.0
 40
10.0
 40
11.0
 40
11.0
 40
11.0
 40
12.0
 40
12.0
 40
12.0
 40
13.0
 40
13.0
 40
13.0
 40
14.0
 40
14.0
 40
14.0
 40
15.0
 40
15.0
 40
15.0
 40
16.0
 40
16.0
 40
16.0
 40
17.0
 40
17.0
 40
17.0
 40
18.0
 40
18.0
 40
18.0
 40
18.0
 10
1.5346177842881943
 20
24.87324490017361
 30
0.0
 10
1.5346177842881943
 20
23.898799641927081
 30
0.0
 10
1.5346177842881943
 20
21.122224934895833
 30
0.0
 10
1.5346177842881943
 20
20.148985460069444
 30
0.0
 10
1.5346177842881943
 20
20.148985460069444
 30
0.0
 10
7.232805718315972
 20
17.713991970486109
 30
0.0
 10
8.3541842990451389
 20
15.421280924479165
 30
0.0
 10
8.3541842990451389
 20
15.228011067708332
 30
0.0
 10
1.5346177842881943
 20
17.176729329427083
 30
0.0
 10
1.5346177842881943
 20
16.542314995659719
 30
0.0
 10
1.5346177842881943
 20
16.542314995659719
 30
0.0
 10
1.5346177842881943
 20
13.669794379340276
 30
0.0
 10
1.5346177842881943
 20
13.669794379340276
 30
0.0
 10
1.5346177842881943
 20
13.669794379340276
 30
0.0
 10
1.5346177842881943
 20
12.255582682291665
 30
0.0
 10
1.5346177842881943
 20
12.255582682291665
 30
0.0
 10
1.5346177842881943
 20
12.107443576388889
 30
0.0
 10
1.4515909830729166
 20
11.915896267361109
 30
0.0
 10
1.3530612521701388
 20
11.915896267361109
 30
0.0
 10
1.3530612521701388
 20
11.915896267361109
 30
0.0
 10
0.0218763563368056
 20
11.915896267361109
 30
0.0
 10
0.0218763563368056
 20
11.915896267361109
 30
0.0
 10
-0.0873331705729167
 20
11.915896267361109
 30
0.0
 10
-0.1209228515625
 20
12.081605360243055
 30
0.0
 10
-0.1221286349826389
 20
12.255582682291665
 30
0.0
 10
-0.1221286349826389
 20
12.255582682291665
 30
0.0
 10
-0.1221286349826389
 20
16.542314995659719
 30
0.0
 10
-0.1221286349826389
 20
16.542314995659719
 30
0.0
 10
-0.1221286349826389
 20
16.932816569010416
 30
0.0
 10
-4.8474216037326388
 20
16.202284071180554
 30
0.0
 10
-6.2590494791666664
 20
13.669794379340276
 30
0.0
 10
-6.4547309027777775
 20
13.669794379340276
 30
0.0
 10
-8.3541842990451389
 20
14.449763997395833
 30
0.0
 10
-8.3541842990451389
 20
18.734946017795139
 30
0.0
 10
-8.3541842990451389
 20
22.095119900173611
 30
0.0
 10
-6.8934638129340273
 20
24.094825575086805
 30
0.0
 10
-6.6013197157118046
 20
24.287750922309026
 30
0.0
 10
-6.4547309027777775
 20
24.287750922309026
 30
0.0
 10
-3.289204915364583
 20
20.683836534288194
 30
0.0
 10
-1.0951958550347221
 20
20.683836534288194
 30
0.0
 10
-1.0951958550347221
 20
20.683836534288194
 30
0.0
 10
-0.3166042751736111
 20
20.683836534288194
 30
0.0
 10
-0.3166042751736111
 20
20.683836534288194
 30
0.0
 10
-0.3166042751736111
 20
21.658109537760414
 30
0.0
 10
-0.1221286349826389
 20
23.898799641927081
 30
0.0
 10
-0.1221286349826389
 20
24.87324490017361
 30
0.0
 10
-0.1221286349826389
 20
24.87324490017361
 30
0.0
 10
-0.1221286349826389
 20
25.21430935329861
 30
0.0
 10
0.6574964735243055
 20
25.21430935329861
 30
0.0
 10
1.4360880533854166
 20
25.21430935329861
 30
0.0
 10
1.5346177842881943
 20
24.87324490017361
 30
0.0
 10
1.5346177842881943
 20
24.87324490017361
 30
0.0
 10
1.5346177842881943
 20
24.87324490017361
 30
0.0
 10
1.5346177842881943
 20
24.87324490017361
 30
0.0
 10
1.5346177842881943
 20
24.87324490017361
 30
0.0
  0
SPLINE
  5
1BF
100
AcDbEntity
  8
EMBLEM
 62
     7
100
AcDbSpline
210
0.0
220
0.0
230
1.0
 70
     8
 71
     3
 72
    26
 73
    22
 74
     0
 42
0.00000001
 43
0.00000001
 40
0.0
 40
0.0
 40
0.0
 40
0.0
 40
1.0
 40
1.0
 40
1.0
 40
2.0
 40
2.0
 40
2.0
 40
3.0
 40
3.0
 40
3.0
 40
4.0
 40
4.0
 40
4.0
 40
5.0
 40
5.0
 40
5.0
 40
6.0
 40
6.0
 40
6.0
 40
7.0
 40
7.0
 40
7.0
 40
7.0
 10
0.1593356662326389
 20
-22.429638671874997
 30
0.0
 10
0.2993787977430555
 20
-22.413791232638886
 30
0.0
 10
1.3065524631076388
 20
-22.429638671874997
 30
0.0
 10
1.3065524631076388
 20
-22.429638671874997
 30
0.0
 10
1.5480536566840277
 20
-22.424471028645833
 30
0.0
 10
1.6307359483506942
 20
-22.585012478298609
 30
0.0
 10
1.6307359483506942
 20
-22.694222005208331
 30
0.0
 10
1.6307359483506942
 20
-22.875778537326386
 30
0.0
 10
1.6307359483506942
 20
-24.619685872395831
 30
0.0
 10
1.6307359483506942
 20
-24.619685872395831
 30
0.0
 10
1.6255683051215277
 20
-25.429627821180553
 30
0.0
 10
-0.1221286349826389
 20
-25.395176866319442
 30
0.0
 10
-0.1221286349826389
 20
-24.619685872395831
 30
0.0
 10
-0.1221286349826389
 20
-24.619685872395831
 30
0.0
 10
-0.1221286349826389
 20
-22.694222005208331
 30
0.0
 10
-0.1221286349826389
 20
-22.694222005208331
 30
0.0
 10
-0.10386962890625
 20
-22.528168402777776
 30
0.0
 10
0.0451307508680555
 20
-22.445486111111109
 30
0.0
 10
0.1593356662326389
 20
-22.429638671874997
 30
0.0
 10
0.1593356662326389
 20
-22.429638671874997
 30
0.0
 10
0.1593356662326389
 20
-22.429638671874997
 30
0.0
 10
0.1593356662326389
 20
-22.429638671874997
 30
0.0
  0
SPLINE
  5
1BE
100
AcDbEntity
  8
EMBLEM
 62
     7
100
AcDbSpline
210
0.0
220
0.0
230
1.0
 70
     8
 71
     3
 72
    32
 73
    28
 74
     0
 42
0.00000001
 43
0.00000001
 40
0.0
 40
0.0
 40
0.0
 40
0.0
 40
1.0
 40
1.0
 40
1.0
 40
2.0
 40
2.0
 40
2.0
 40
3.0
 40
3.0
 40
3.0
 40
4.0
 40
4.0
 40
4.0
 40
5.0
 40
5.0
 40
5.0
 40
6.0
 40
6.0
 40
6.0
 40
7.0
 40
7.0
 40
7.0
 40
8.0
 40
8.0
 40
8.0
 40
9.0
 40
9.0
 40
9.0
 40
9.0
 10
3.7501586914062495
 20
-19.601215277777776
 30
0.0
 10
3.7501586914062495
 20
-19.601215277777776
 30
0.0
 10
4.3134318033854164
 20
-19.601215277777776
 30
0.0
 10
4.3134318033854164
 20
-19.601215277777776
 30
0.0
 10
4.5084242078993055
 20
-19.601215277777776
 30
0.0
 10
4.6017862955729161
 20
-19.74177517361111
 30
0.0
 10
4.6017862955729161
 20
-19.932977973090274
 30
0.0
 10
4.6017862955729161
 20
-19.932977973090274
 30
0.0
 10
4.6041978624131943
 20
-21.453987630208331
 30
0.0
 10
4.6041978624131943
 20
-21.453987630208331
 30
0.0
 10
4.606953938802083
 20
-21.689976671006942
 30
0.0
 10
4.4715616861979166
 20
-21.801597764756941
 30
0.0
 10
4.3268676757812496
 20
-21.801597764756941
 30
0.0
 10
4.3268676757812496
 20
-21.801597764756941
 30
0.0
 10
3.7897772894965276
 20
-21.801597764756941
 30
0.0
 10
3.7897772894965276
 20
-21.801597764756941
 30
0.0
 10
3.5947848849826385
 20
-21.801597764756941
 30
0.0
 10
3.4835083007812497
 20
-21.651391601562498
 30
0.0
 10
3.4835083007812497
 20
-21.453987630208331
 30
0.0
 10
3.4835083007812497
 20
-21.453987630208331
 30
0.0
 10
3.4862643771701385
 20
-19.912651909722221
 30
0.0
 10
3.4862643771701385
 20
-19.912651909722221
 30
0.0
 10
3.4862643771701385
 20
-19.715247938368055
 30
0.0
 10
3.5589558919270829
 20
-19.601215277777776
 30
0.0
 10
3.7501586914062495
 20
-19.601215277777776
 30
0.0
 10
3.7501586914062495
 20
-19.601215277777776
 30
0.0
 10
3.7501586914062495
 20
-19.601215277777776
 30
0.0
 10
3.7501586914062495
 20
-19.601215277777776
 30
0.0
  0
SPLINE
  5
1BD
100
AcDbEntity
  8
EMBLEM
 62
     7
100
AcDbSpline
210
0.0
220
0.0
230
1.0
 70
     8
 71
     3
 72
    32
 73
    28
 74
     0
 42
0.00000001
 43
0.00000001
 40
0.0
 40
0.0
 40
0.0
 40
0.0
 40
1.0
 40
1.0
 40
1.0
 40
2.0
 40
2.0
 40
2.0
 40
3.0
 40
3.0
 40
3.0
 40
4.0
 40
4.0
 40
4.0
 40
5.0
 40
5.0
 40
5.0
 40
6.0
 40
6.0
 40
6.0
 40
7.0
 40
7.0
 40
7.0
 40
8.0
 40
8.0
 40
8.0
 40
9.0
 40
9.0
 40
9.0
 40
9.0
 10
2.0792873806423611
 20
-19.601215277777776
 30
0.0
 10
2.0792873806423611
 20
-19.601215277777776
 30
0.0
 10
2.7383341471354163
 20
-19.601215277777776
 30
0.0
 10
2.7383341471354163
 20
-19.601215277777776
 30
0.0
 10
2.8785495334201388
 20
-19.601215277777776
 30
0.0
 10
2.9674329969618052
 20
-19.774848090277775
 30
0.0
 10
2.9674329969618052
 20
-19.905072699652777
 30
0.0
 10
2.9674329969618052
 20
-19.905072699652777
 30
0.0
 10
2.9674329969618052
 20
-21.562852647569443
 30
0.0
 10
2.9674329969618052
 20
-21.562852647569443
 30
0.0
 10
2.9822469075520832
 20
-21.728561740451386
 30
0.0
 10
2.7593492296006943
 20
-21.796085611979166
 30
0.0
 10
2.7593492296006943
 20
-21.796085611979166
 30
0.0
 10
2.7593492296006943
 20
-21.796085611979166
 30
0.0
 10
2.1268296983506945
 20
-21.801597764756941
 30
0.0
 10
2.1268296983506945
 20
-21.801597764756941
 30
0.0
 10
1.9600870768229164
 20
-21.801597764756941
 30
0.0
 10
1.8591457790798609
 20
-21.609016927083331
 30
0.0
 10
1.8591457790798609
 20
-21.511176215277775
 30
0.0
 10
1.8591457790798609
 20
-21.511176215277775
 30
0.0
 10
1.8591457790798609
 20
-19.912651909722221
 30
0.0
 10
1.8591457790798609
 20
-19.912651909722221
 30
0.0
 10
1.8670694986979166
 20
-19.694232855902776
 30
0.0
 10
1.9807576497395831
 20
-19.601215277777776
 30
0.0
 10
2.0792873806423611
 20
-19.601215277777776
 30
0.0
 10
2.0792873806423611
 20
-19.601215277777776
 30
0.0
 10
2.0792873806423611
 20
-19.601215277777776
 30
0.0
 10
2.0792873806423611
 20
-19.601215277777776
 30
0.0
  0
SPLINE
  5
1BC
100
AcDbEntity
  8
EMBLEM
 62
     7
100
AcDbSpline
210
0.0
220
0.0
230
1.0
 70
     8
 71
     3
 72
    32
 73
    28
 74
     0
 42
0.00000001
 43
0.00000001
 40
0.0
 40
0.0
 40
0.0
 40
0.0
 40
1.0
 40
1.0
 40
1.0
 40
2.0
 40
2.0
 40
2.0
 40
3.0
 40
3.0
 40
3.0
 40
4.0
 40
4.0
 40
4.0
 40
5.0
 40
5.0
 40
5.0
 40
6.0
 40
6.0
 40
6.0
 40
7.0
 40
7.0
 40
7.0
 40
8.0
 40
8.0
 40
8.0
 40
9.0
 40
9.0
 40
9.0
 40
9.0
 10
0.3464043511284722
 20
-19.595703124999996
 30
0.0
 10
0.3464043511284722
 20
-19.595703124999996
 30
0.0
 10
1.0519599066840277
 20
-19.595703124999996
 30
0.0
 10
1.0519599066840277
 20
-19.595703124999996
 30
0.0
 10
1.2490193684895832
 20
-19.595703124999996
 30
0.0
 10
1.3113755967881944
 20
-19.790695529513886
 30
0.0
 10
1.3113755967881944
 20
-19.886469184027774
 30
0.0
 10
1.3113755967881944
 20
-19.886469184027774
 30
0.0
 10
1.3113755967881944
 20
-21.490161132812499
 30
0.0
 10
1.3113755967881944
 20
-21.490161132812499
 30
0.0
 10
1.3113755967881944
 20
-21.589035373263886
 30
0.0
 10
1.2752020941840276
 20
-21.790917968749998
 30
0.0
 10
1.0833102756076387
 20
-21.790917968749998
 30
0.0
 10
1.0833102756076387
 20
-21.790917968749998
 30
0.0
 10
0.3384806315104166
 20
-21.78816189236111
 30
0.0
 10
0.3384806315104166
 20
-21.78816189236111
 30
0.0
 10
0.3384806315104166
 20
-21.78816189236111
 30
0.0
 10
0.1529622395833333
 20
-21.728561740451386
 30
0.0
 10
0.1450385199652778
 20
-21.490161132812499
 30
0.0
 10
0.1450385199652778
 20
-21.490161132812499
 30
0.0
 10
0.1450385199652778
 20
-19.884057617187498
 30
0.0
 10
0.1450385199652778
 20
-19.884057617187498
 30
0.0
 10
0.1593356662326389
 20
-19.617062717013887
 30
0.0
 10
0.3464043511284722
 20
-19.595703124999996
 30
0.0
 10
0.3464043511284722
 20
-19.595703124999996
 30
0.0
 10
0.3464043511284722
 20
-19.595703124999996
 30
0.0
 10
0.3464043511284722
 20
-19.595703124999996
 30
0.0
 10
0.3464043511284722
 20
-19.595703124999996
 30
0.0
  0
SPLINE
  5
1BB
100
AcDbEntity
  8
EMBLEM
 62
     7
100
AcDbSpline
210
0.0
220
0.0
230
1.0
 70
     8
 71
     3
 72
    32
 73
    28
 74
     0
 42
0.00000001
 43
0.00000001
 40
0.0
 40
0.0
 40
0.0
 40
0.0
 40
1.0
 40
1.0
 40
1.0
 40
2.0
 40
2.0
 40
2.0
 40
3.0
 40
3.0
 40
3.0
 40
4.0
 40
4.0
 40
4.0
 40
5.0
 40
5.0
 40
5.0
 40
6.0
 40
6.0
 40
6.0
 40
7.0
 40
7.0
 40
7.0
 40
8.0
 40
8.0
 40
8.0
 40
9.0
 40
9.0
 40
9.0
 40
9.0
 10
-1.2703789605034721
 20
-19.595703124999996
 30
0.0
 10
-1.2703789605034721
 20
-19.595703124999996
 30
0.0
 10
-0.5877332899305555
 20
-19.595703124999996
 30
0.0
 10
-0.5877332899305555
 20
-19.595703124999996
 30
0.0
 10
-0.3936021592881944
 20
-19.595703124999996
 30
0.0
 10
-0.3450263129340278
 20
-19.790695529513886
 30
0.0
 10
-0.3450263129340278
 20
-19.886469184027774
 30
0.0
 10
-0.3450263129340278
 20
-19.886469184027774
 30
0.0
 10
-0.3450263129340278
 20
-21.544938151041666
 30
0.0
 10
-0.3450263129340278
 20
-21.544938151041666
 30
0.0
 10
-0.3450263129340278
 20
-21.640711805555554
 30
0.0
 10
-0.4905815972222222
 20
-21.78816189236111
 30
0.0
 10
-0.5877332899305555
 20
-21.78816189236111
 30
0.0
 10
-0.5877332899305555
 20
-21.78816189236111
 30
0.0
 10
-1.2703789605034721
 20
-21.78816189236111
 30
0.0
 10
-1.2703789605034721
 20
-21.78816189236111
 30
0.0
 10
-1.3689086914062498
 20
-21.78816189236111
 30
0.0
 10
-1.5585611979166665
 20
-21.713403320312498
 30
0.0
 10
-1.5585611979166665
 20
-21.518755425347219
 30
0.0
 10
-1.5585611979166665
 20
-21.518755425347219
 30
0.0
 10
-1.5585611979166665
 20
-19.884057617187498
 30
0.0
 10
-1.5585611979166665
 20
-19.884057617187498
 30
0.0
 10
-1.5585611979166665
 20
-19.686998155381943
 30
0.0
 10
-1.4648546006944443
 20
-19.595703124999996
 30
0.0
 10
-1.2703789605034721
 20
-19.595703124999996
 30
0.0
 10
-1.2703789605034721
 20
-19.595703124999996
 30
0.0
 10
-1.2703789605034721
 20
-19.595703124999996
 30
0.0
 10
-1.2703789605034721
 20
-19.595703124999996
 30
0.0
  0
SPLINE
  5
1BA
100
AcDbEntity
  8
EMBLEM
 62
     7
100
AcDbSpline
210
0.0
220
0.0
230
1.0
 70
     8
 71
     3
 72
    32
 73
    28
 74
     0
 42
0.00000001
 43
0.00000001
 40
0.0
 40
0.0
 40
0.0
 40
0.0
 40
1.0
 40
1.0
 40
1.0
 40
2.0
 40
2.0
 40
2.0
 40
3.0
 40
3.0
 40
3.0
 40
4.0
 40
4.0
 40
4.0
 40
5.0
 40
5.0
 40
5.0
 40
6.0
 40
6.0
 40
6.0
 40
7.0
 40
7.0
 40
7.0
 40
8.0
 40
8.0
 40
8.0
 40
9.0
 40
9.0
 40
9.0
 40
9.0
 10
-2.9958550347222221
 20
-19.601215277777776
 30
0.0
 10
-2.9958550347222221
 20
-19.601215277777776
 30
0.0
 10
-2.3135538736979164
 20
-19.601215277777776
 30
0.0
 10
-2.3135538736979164
 20
-19.601215277777776
 30
0.0
 10
-2.1550794813368053
 20
-19.601215277777776
 30
0.0
 10
-2.06964111328125
 20
-19.756589084201387
 30
0.0
 10
-2.06964111328125
 20
-19.855463324652774
 30
0.0
 10
-2.06964111328125
 20
-19.855463324652774
 30
0.0
 10
-2.06964111328125
 20
-21.453987630208331
 30
0.0
 10
-2.06964111328125
 20
-21.453987630208331
 30
0.0
 10
-2.0630954318576387
 20
-21.697900390624998
 30
0.0
 10
-2.163003200954861
 20
-21.790917968749998
 30
0.0
 10
-2.3135538736979164
 20
-21.796085611979166
 30
0.0
 10
-2.3135538736979164
 20
-21.796085611979166
 30
0.0
 10
-3.0284111870659718
 20
-21.801597764756941
 30
0.0
 10
-3.0284111870659718
 20
-21.801597764756941
 30
0.0
 10
-3.1255628797743054
 20
-21.801597764756941
 30
0.0
 10
-3.2879991319444439
 20
-21.721327039930554
 30
0.0
 10
-3.289204915364583
 20
-21.453987630208331
 30
0.0
 10
-3.289204915364583
 20
-21.453987630208331
 30
0.0
 10
-3.2879991319444439
 20
-19.839960394965274
 30
0.0
 10
-3.2879991319444439
 20
-19.839960394965274
 30
0.0
 10
-3.2879991319444439
 20
-19.645312499999999
 30
0.0
 10
-3.0919731987847219
 20
-19.601215277777776
 30
0.0
 10
-2.9958550347222221
 20
-19.601215277777776
 30
0.0
 10
-2.9958550347222221
 20
-19.601215277777776
 30
0.0
 10
-2.9958550347222221
 20
-19.601215277777776
 30
0.0
 10
-2.9958550347222221
 20
-19.601215277777776
 30
0.0
  0
SPLINE
  5
1B9
100
AcDbEntity
  8
EMBLEM
 62
     7
100
AcDbSpline
210
0.0
220
0.0
230
1.0
 70
     8
 71
     3
 72
    32
 73
    28
 74
     0
 42
0.00000001
 43
0.00000001
 40
0.0
 40
0.0
 40
0.0
 40
0.0
 40
1.0
 40
1.0
 40
1.0
 40
2.0
 40
2.0
 40
2.0
 40
3.0
 40
3.0
 40
3.0
 40
4.0
 40
4.0
 40
4.0
 40
5.0
 40
5.0
 40
5.0
 40
6.0
 40
6.0
 40
6.0
 40
7.0
 40
7.0
 40
7.0
 40
8.0
 40
8.0
 40
8.0
 40
9.0
 40
9.0
 40
9.0
 40
9.0
 10
3.8335300021701384
 20
11.474579535590276
 30
0.0
 10
3.8335300021701384
 20
11.474579535590276
 30
0.0
 10
4.2696790907118052
 20
11.474579535590276
 30
0.0
 10
4.2696790907118052
 20
11.474579535590276
 30
0.0
 10
4.4147176106770827
 20
11.474579535590276
 30
0.0
 10
4.61212158203125
 20
11.43840603298611
 30
0.0
 10
4.61212158203125
 20
11.194493272569444
 30
0.0
 10
4.61212158203125
 20
11.194493272569444
 30
0.0
 10
4.61212158203125
 20
8.9417453342013875
 30
0.0
 10
4.61212158203125
 20
8.9417453342013875
 30
0.0
 10
4.61212158203125
 20
8.7030002170138889
 30
0.0
 10
4.4147176106770827
 20
8.6513237847222211
 30
0.0
 10
4.2696790907118052
 20
8.6513237847222211
 30
0.0
 10
4.2696790907118052
 20
8.6513237847222211
 30
0.0
 10
3.8335300021701384
 20
8.6513237847222211
 30
0.0
 10
3.8335300021701384
 20
8.6513237847222211
 30
0.0
 10
3.5379408094618054
 20
8.6406439887152775
 30
0.0
 10
3.4914320203993054
 20
8.8435601128472214
 30
0.0
 10
3.4914320203993054
 20
8.9417453342013875
 30
0.0
 10
3.4914320203993054
 20
8.9417453342013875
 30
0.0
 10
3.4914320203993054
 20
11.233078342013888
 30
0.0
 10
3.4914320203993054
 20
11.233078342013888
 30
0.0
 10
3.4914320203993054
 20
11.474579535590276
 30
0.0
 10
3.6364705403645829
 20
11.474579535590276
 30
0.0
 10
3.8335300021701384
 20
11.474579535590276
 30
0.0
 10
3.8335300021701384
 20
11.474579535590276
 30
0.0
 10
3.8335300021701384
 20
11.474579535590276
 30
0.0
 10
3.8335300021701384
 20
11.474579535590276
 30
0.0
  0
SPLINE
  5
1B8
100
AcDbEntity
  8
EMBLEM
 62
     7
100
AcDbSpline
210
0.0
220
0.0
230
1.0
 70
     8
 71
     3
 72
    32
 73
    28
 74
     0
 42
0.00000001
 43
0.00000001
 40
0.0
 40
0.0
 40
0.0
 40
0.0
 40
1.0
 40
1.0
 40
1.0
 40
2.0
 40
2.0
 40
2.0
 40
3.0
 40
3.0
 40
3.0
 40
4.0
 40
4.0
 40
4.0
 40
5.0
 40
5.0
 40
5.0
 40
6.0
 40
6.0
 40
6.0
 40
7.0
 40
7.0
 40
7.0
 40
8.0
 40
8.0
 40
8.0
 40
9.0
 40
9.0
 40
9.0
 40
9.0
 10
2.1678263346354165
 20
11.474579535590276
 30
0.0
 10
2.1678263346354165
 20
11.474579535590276
 30
0.0
 10
2.6532402886284721
 20
11.479747178819444
 30
0.0
 10
2.6532402886284721
 20
11.479747178819444
 30
0.0
 10
2.6532402886284721
 20
11.479747178819444
 30
0.0
 10
2.9460734049479163
 20
11.479747178819444
 30
0.0
 10
2.9515855577256942
 20
11.178990342881944
 30
0.0
 10
2.9515855577256942
 20
11.178990342881944
 30
0.0
 10
2.9515855577256942
 20
8.9269314236111104
 30
0.0
 10
2.9515855577256942
 20
8.9269314236111104
 30
0.0
 10
2.9515855577256942
 20
8.9269314236111104
 30
0.0
 10
2.9281589084201385
 20
8.6354763454861097
 30
0.0
 10
2.6814900716145833
 20
8.6513237847222211
 30
0.0
 10
2.6814900716145833
 20
8.6513237847222211
 30
0.0
 10
2.2143351236979165
 20
8.6513237847222211
 30
0.0
 10
2.2143351236979165
 20
8.6513237847222211
 30
0.0
 10
1.9731784396701386
 20
8.6513237847222211
 30
0.0
 10
1.8457099066840277
 20
8.7398627387152779
 30
0.0
 10
1.8457099066840277
 20
8.9365776909722214
 30
0.0
 10
1.8457099066840277
 20
8.9365776909722214
 30
0.0
 10
1.8457099066840277
 20
11.241002061631944
 30
0.0
 10
1.8457099066840277
 20
11.241002061631944
 30
0.0
 10
1.8512220594618054
 20
11.495594618055554
 30
0.0
 10
2.1678263346354165
 20
11.474579535590276
 30
0.0
 10
2.1678263346354165
 20
11.474579535590276
 30
0.0
 10
2.1678263346354165
 20
11.474579535590276
 30
0.0
 10
2.1678263346354165
 20
11.474579535590276
 30
0.0
 10
2.1678263346354165
 20
11.474579535590276
 30
0.0
  0
SPLINE
  5
1B7
100
AcDbEntity
  8
EMBLEM
 62
     7
100
AcDbSpline
210
0.0
220
0.0
230
1.0
 70
     8
 71
     3
 72
    32
 73
    28
 74
     0
 42
0.00000001
 43
0.00000001
 40
0.0
 40
0.0
 40
0.0
 40
0.0
 40
1.0
 40
1.0
 40
1.0
 40
2.0
 40
2.0
 40
2.0
 40
3.0
 40
3.0
 40
3.0
 40
4.0
 40
4.0
 40
4.0
 40
5.0
 40
5.0
 40
5.0
 40
6.0
 40
6.0
 40
6.0
 40
7.0
 40
7.0
 40
7.0
 40
8.0
 40
8.0
 40
8.0
 40
9.0
 40
9.0
 40
9.0
 40
9.0
 10
0.3098863389756944
 20
11.474579535590276
 30
0.0
 10
0.3098863389756944
 20
11.474579535590276
 30
0.0
 10
1.0233656141493055
 20
11.479747178819444
 30
0.0
 10
1.0233656141493055
 20
11.479747178819444
 30
0.0
 10
1.1687486436631944
 20
11.479747178819444
 30
0.0
 10
1.2907050238715276
 20
11.388796657986109
 30
0.0
 10
1.2827813042534721
 20
11.233078342013888
 30
0.0
 10
1.2827813042534721
 20
11.233078342013888
 30
0.0
 10
1.2827813042534721
 20
8.9417453342013875
 30
0.0
 10
1.2827813042534721
 20
8.9417453342013875
 30
0.0
 10
1.2827813042534721
 20
8.75019802517361
 30
0.0
 10
1.1401543511284722
 20
8.6406439887152775
 30
0.0
 10
0.9923597547743055
 20
8.6513237847222211
 30
0.0
 10
0.9923597547743055
 20
8.6513237847222211
 30
0.0
 10
0.3617350260416666
 20
8.6513237847222211
 30
0.0
 10
0.3617350260416666
 20
8.6513237847222211
 30
0.0
 10
0.3617350260416666
 20
8.6513237847222211
 30
0.0
 10
0.1150661892361111
 20
8.7109239366319429
 30
0.0
 10
0.1138604058159722
 20
8.9417453342013875
 30
0.0
 10
0.1138604058159722
 20
8.9417453342013875
 30
0.0
 10
0.1138604058159722
 20
11.233078342013888
 30
0.0
 10
0.1138604058159722
 20
11.233078342013888
 30
0.0
 10
0.1138604058159722
 20
11.474579535590276
 30
0.0
 10
0.3098863389756944
 20
11.474579535590276
 30
0.0
 10
0.3098863389756944
 20
11.474579535590276
 30
0.0
 10
0.3098863389756944
 20
11.474579535590276
 30
0.0
 10
0.3098863389756944
 20
11.474579535590276
 30
0.0
 10
0.3098863389756944
 20
11.474579535590276
 30
0.0
  0
SPLINE
  5
1B6
100
AcDbEntity
  8
EMBLEM
 62
     7
100
AcDbSpline
210
0.0
220
0.0
230
1.0
 70
     8
 71
     3
 72
    32
 73
    28
 74
     0
 42
0.00000001
 43
0.00000001
 40
0.0
 40
0.0
 40
0.0
 40
0.0
 40
1.0
 40
1.0
 40
1.0
 40
2.0
 40
2.0
 40
2.0
 40
3.0
 40
3.0
 40
3.0
 40
4.0
 40
4.0
 40
4.0
 40
5.0
 40
5.0
 40
5.0
 40
6.0
 40
6.0
 40
6.0
 40
7.0
 40
7.0
 40
7.0
 40
8.0
 40
8.0
 40
8.0
 40
9.0
 40
9.0
 40
9.0
 40
9.0
 10
-1.2340332031249999
 20
11.474579535590276
 30
0.0
 10
-1.2340332031249999
 20
11.474579535590276
 30
0.0
 10
-0.6502617730034722
 20
11.474579535590276
 30
0.0
 10
-0.6502617730034722
 20
11.474579535590276
 30
0.0
 10
-0.4917873806423611
 20
11.487670898437498
 30
0.0
 10
-0.3529500325520833
 20
11.471823459201389
 30
0.0
 10
-0.3569118923611111
 20
11.233078342013888
 30
0.0
 10
-0.3569118923611111
 20
11.233078342013888
 30
0.0
 10
-0.35966796875
 20
8.88972439236111
 30
0.0
 10
-0.35966796875
 20
8.88972439236111
 30
0.0
 10
-0.35966796875
 20
8.6933539496527779
 30
0.0
 10
-0.5153862847222221
 20
8.6406439887152775
 30
0.0
 10
-0.5904893663194444
 20
8.6513237847222211
 30
0.0
 10
-0.5904893663194444
 20
8.6513237847222211
 30
0.0
 10
-1.31309814453125
 20
8.6513237847222211
 30
0.0
 10
-1.31309814453125
 20
8.6513237847222211
 30
0.0
 10
-1.4119723849826387
 20
8.6513237847222211
 30
0.0
 10
-1.5285888671874999
 20
8.7994628906249996
 30
0.0
 10
-1.5285888671874999
 20
8.8952365451388875
 30
0.0
 10
-1.5285888671874999
 20
8.8952365451388875
 30
0.0
 10
-1.527383083767361
 20
11.233078342013888
 30
0.0
 10
-1.527383083767361
 20
11.233078342013888
 30
0.0
 10
-1.527383083767361
 20
11.474579535590276
 30
0.0
 10
-1.3313571506076387
 20
11.474579535590276
 30
0.0
 10
-1.2340332031249999
 20
11.474579535590276
 30
0.0
 10
-1.2340332031249999
 20
11.474579535590276
 30
0.0
 10
-1.2340332031249999
 20
11.474579535590276
 30
0.0
 10
-1.2340332031249999
 20
11.474579535590276
 30
0.0
  0
SPLINE
  5
1B5
100
AcDbEntity
  8
EMBLEM
 62
     7
100
AcDbSpline
210
0.0
220
0.0
230
1.0
 70
     8
 71
     3
 72
    32
 73
    28
 74
     0
 42
0.00000001
 43
0.00000001
 40
0.0
 40
0.0
 40
0.0
 40
0.0
 40
1.0
 40
1.0
 40
1.0
 40
2.0
 40
2.0
 40
2.0
 40
3.0
 40
3.0
 40
3.0
 40
4.0
 40
4.0
 40
4.0
 40
5.0
 40
5.0
 40
5.0
 40
6.0
 40
6.0
 40
6.0
 40
7.0
 40
7.0
 40
7.0
 40
8.0
 40
8.0
 40
8.0
 40
9.0
 40
9.0
 40
9.0
 40
9.0
 10
-2.9958550347222221
 20
11.474579535590276
 30
0.0
 10
-2.9958550347222221
 20
11.474579535590276
 30
0.0
 10
-2.3666083441840278
 20
11.479747178819444
 30
0.0
 10
-2.3666083441840278
 20
11.479747178819444
 30
0.0
 10
-2.1990044487847222
 20
11.487670898437498
 30
0.0
 10
-2.0668850368923608
 20
11.433238389756944
 30
0.0
 10
-2.06964111328125
 20
11.233078342013888
 30
0.0
 10
-2.06964111328125
 20
11.233078342013888
 30
0.0
 10
-2.06964111328125
 20
8.9417453342013875
 30
0.0
 10
-2.06964111328125
 20
8.9417453342013875
 30
0.0
 10
-2.06964111328125
 20
8.75019802517361
 30
0.0
 10
-2.2277709960937497
 20
8.6354763454861097
 30
0.0
 10
-2.3511054144965278
 20
8.6513237847222211
 30
0.0
 10
-2.3511054144965278
 20
8.6513237847222211
 30
0.0
 10
-3.0532158745659719
 20
8.6513237847222211
 30
0.0
 10
-3.0532158745659719
 20
8.6513237847222211
 30
0.0
 10
-3.2671563042534721
 20
8.6513237847222211
 30
0.0
 10
-3.289204915364583
 20
8.8435601128472214
 30
0.0
 10
-3.289204915364583
 20
8.9417453342013875
 30
0.0
 10
-3.289204915364583
 20
8.9417453342013875
 30
0.0
 10
-3.289204915364583
 20
11.233078342013888
 30
0.0
 10
-3.289204915364583
 20
11.233078342013888
 30
0.0
 10
-3.289204915364583
 20
11.474579535590276
 30
0.0
 10
-3.0919731987847219
 20
11.474579535590276
 30
0.0
 10
-2.9958550347222221
 20
11.474579535590276
 30
0.0
 10
-2.9958550347222221
 20
11.474579535590276
 30
0.0
 10
-2.9958550347222221
 20
11.474579535590276
 30
0.0
 10
-2.9958550347222221
 20
11.474579535590276
 30
0.0
  0
SPLINE
  5
1B4
100
AcDbEntity
  8
EMBLEM
 62
     7
100
AcDbSpline
210
0.0
220
0.0
230
1.0
 70
     8
 71
     3
 72
    32
 73
    28
 74
     0
 42
0.00000001
 43
0.00000001
 40
0.0
 40
0.0
 40
0.0
 40
0.0
 40
1.0
 40
1.0
 40
1.0
 40
2.0
 40
2.0
 40
2.0
 40
3.0
 40
3.0
 40
3.0
 40
4.0
 40
4.0
 40
4.0
 40
5.0
 40
5.0
 40
5.0
 40
6.0
 40
6.0
 40
6.0
 40
7.0
 40
7.0
 40
7.0
 40
8.0
 40
8.0
 40
8.0
 40
9.0
 40
9.0
 40
9.0
 40
9.0
 10
-3.6292358398437496
 20
8.3112928602430554
 30
0.0
 10
-3.6292358398437496
 20
8.3112928602430554
 30
0.0
 10
4.700660536024305
 20
8.3112928602430554
 30
0.0
 10
4.700660536024305
 20
8.3112928602430554
 30
0.0
 10
4.8456990559895825
 20
8.3112928602430554
 30
0.0
 10
5.0427585177951384
 20
8.1631537543402768
 30
0.0
 10
5.0427585177951384
 20
8.0673800998263889
 30
0.0
 10
5.0427585177951384
 20
8.0673800998263889
 30
0.0
 10
5.0427585177951384
 20
7.0917290581597214
 30
0.0
 10
5.0427585177951384
 20
7.0917290581597214
 30
0.0
 10
5.0427585177951384
 20
6.9466905381944439
 30
0.0
 10
4.8456990559895825
 20
6.7520426432291663
 30
0.0
 10
4.700660536024305
 20
6.7520426432291663
 30
0.0
 10
4.700660536024305
 20
6.7520426432291663
 30
0.0
 10
-3.6292358398437496
 20
6.7520426432291663
 30
0.0
 10
-3.6292358398437496
 20
6.7520426432291663
 30
0.0
 10
-3.7263875325520832
 20
6.7520426432291663
 30
0.0
 10
-3.8728040907118051
 20
6.9466905381944439
 30
0.0
 10
-3.8728040907118051
 20
7.0917290581597214
 30
0.0
 10
-3.8728040907118051
 20
7.0917290581597214
 30
0.0
 10
-3.8728040907118051
 20
8.0673800998263889
 30
0.0
 10
-3.8728040907118051
 20
8.0673800998263889
 30
0.0
 10
-3.8728040907118051
 20
8.1631537543402768
 30
0.0
 10
-3.7263875325520832
 20
8.3112928602430554
 30
0.0
 10
-3.6292358398437496
 20
8.3112928602430554
 30
0.0
 10
-3.6292358398437496
 20
8.3112928602430554
 30
0.0
 10
-3.6292358398437496
 20
8.3112928602430554
 30
0.0
 10
-3.6292358398437496
 20
8.3112928602430554
 30
0.0
  0
SPLINE
  5
1B3
100
AcDbEntity
  8
EMBLEM
 62
     7
100
AcDbSpline
210
0.0
220
0.0
230
1.0
 70
     8
 71
     3
 72
    32
 73
    28
 74
     0
 42
0.00000001
 43
0.00000001
 40
0.0
 40
0.0
 40
0.0
 40
0.0
 40
1.0
 40
1.0
 40
1.0
 40
2.0
 40
2.0
 40
2.0
 40
3.0
 40
3.0
 40
3.0
 40
4.0
 40
4.0
 40
4.0
 40
5.0
 40
5.0
 40
5.0
 40
6.0
 40
6.0
 40
6.0
 40
7.0
 40
7.0
 40
7.0
 40
8.0
 40
8.0
 40
8.0
 40
9.0
 40
9.0
 40
9.0
 40
9.0
 10
-3.434243435329861
 20
-17.608227539062497
 30
0.0
 10
-3.434243435329861
 20
-17.608227539062497
 30
0.0
 10
4.700660536024305
 20
-17.608227539062497
 30
0.0
 10
4.700660536024305
 20
-17.608227539062497
 30
0.0
 10
4.8456990559895825
 20
-17.608227539062497
 30
0.0
 10
5.0427585177951384
 20
-17.800463867187499
 30
0.0
 10
5.0427585177951384
 20
-17.898993598090275
 30
0.0
 10
5.0427585177951384
 20
-17.898993598090275
 30
0.0
 10
5.0427585177951384
 20
-18.822623697916665
 30
0.0
 10
5.0427585177951384
 20
-18.822623697916665
 30
0.0
 10
5.0427585177951384
 20
-19.020372178819443
 30
0.0
 10
4.8456990559895825
 20
-19.165066189236111
 30
0.0
 10
4.700660536024305
 20
-19.165066189236111
 30
0.0
 10
4.700660536024305
 20
-19.165066189236111
 30
0.0
 10
-3.434243435329861
 20
-19.165066189236111
 30
0.0
 10
-3.434243435329861
 20
-19.165066189236111
 30
0.0
 10
-3.6292358398437496
 20
-19.165066189236111
 30
0.0
 10
-3.7263875325520832
 20
-19.020372178819443
 30
0.0
 10
-3.7263875325520832
 20
-18.822623697916665
 30
0.0
 10
-3.7263875325520832
 20
-18.822623697916665
 30
0.0
 10
-3.7263875325520832
 20
-17.898993598090275
 30
0.0
 10
-3.7263875325520832
 20
-17.898993598090275
 30
0.0
 10
-3.7263875325520832
 20
-17.800463867187499
 30
0.0
 10
-3.6292358398437496
 20
-17.608227539062497
 30
0.0
 10
-3.434243435329861
 20
-17.608227539062497
 30
0.0
 10
-3.434243435329861
 20
-17.608227539062497
 30
0.0
 10
-3.434243435329861
 20
-17.608227539062497
 30
0.0
 10
-3.434243435329861
 20
-17.608227539062497
 30
0.0
  0
POLYLINE
  5
1AC
100
AcDbEntity
  8
EMBLEM
 62
     7
100
AcDb2dPolyline
 66
     1
 10
0.0
 20
0.0
 30
0.0
 70
     1
  0
VERTEX
  5
1AD
100
AcDbEntity
  8
EMBLEM
 62
     7
100
AcDbVertex
100
AcDb2dVertex
 10
3.486264
 20
6.313137
 30
0.0
  0
VERTEX
  5
1AE
100
AcDbEntity
  8
EMBLEM
 62
     7
100
AcDbVertex
100
AcDb2dVertex
 10
4.604198
 20
6.313137
 30
0.0
  0
VERTEX
  5
1AF
100
AcDbEntity
  8
EMBLEM
 62
     7
100
AcDbVertex
100
AcDb2dVertex
 10
4.604198
 20
-17.12557
 30
0.0
  0
VERTEX
  5
1B0
100
AcDbEntity
  8
EMBLEM
 62
     7
100
AcDbVertex
100
AcDb2dVertex
 10
3.486264
 20
-17.12557
 30
0.0
  0
VERTEX
  5
1B1
100
AcDbEntity
  8
EMBLEM
 62
     7
100
AcDbVertex
100
AcDb2dVertex
 10
3.486264
 20
6.313137
 30
0.0
  0
SEQEND
  5
1B2
100
AcDbEntity
  8
EMBLEM
 62
     7
  0
POLYLINE
  5
1A5
100
AcDbEntity
  8
EMBLEM
 62
     7
100
AcDb2dPolyline
 66
     1
 10
0.0
 20
0.0
 30
0.0
 70
     1
  0
VERTEX
  5
1A6
100
AcDbEntity
  8
EMBLEM
 62
     7
100
AcDbVertex
100
AcDb2dVertex
 10
1.799546
 20
6.313137
 30
0.0
  0
VERTEX
  5
1A7
100
AcDbEntity
  8
EMBLEM
 62
     7
100
AcDbVertex
100
AcDb2dVertex
 10
2.925403
 20
6.313137
 30
0.0
  0
VERTEX
  5
1A8
100
AcDbEntity
  8
EMBLEM
 62
     7
100
AcDbVertex
100
AcDb2dVertex
 10
2.925403
 20
-17.141417
 30
0.0
  0
VERTEX
  5
1A9
100
AcDbEntity
  8
EMBLEM
 62
     7
100
AcDbVertex
100
AcDb2dVertex
 10
1.799546
 20
-17.141417
 30
0.0
  0
VERTEX
  5
1AA
100
AcDbEntity
  8
EMBLEM
 62
     7
100
AcDbVertex
100
AcDb2dVertex
 10
1.799546
 20
6.313137
 30
0.0
  0
SEQEND
  5
1AB
100
AcDbEntity
  8
EMBLEM
 62
     7
  0
POLYLINE
  5
19E
100
AcDbEntity
  8
EMBLEM
 62
     7
100
AcDb2dPolyline
 66
     1
 10
0.0
 20
0.0
 30
0.0
 70
     1
  0
VERTEX
  5
19F
100
AcDbEntity
  8
EMBLEM
 62
     7
100
AcDbVertex
100
AcDb2dVertex
 10
0.121784
 20
6.313137
 30
0.0
  0
VERTEX
  5
1A0
100
AcDbEntity
  8
EMBLEM
 62
     7
100
AcDbVertex
100
AcDb2dVertex
 10
1.290705
 20
6.313137
 30
0.0
  0
VERTEX
  5
1A1
100
AcDbEntity
  8
EMBLEM
 62
     7
100
AcDbVertex
100
AcDb2dVertex
 10
1.290705
 20
-17.1676
 30
0.0
  0
VERTEX
  5
1A2
100
AcDbEntity
  8
EMBLEM
 62
     7
100
AcDbVertex
100
AcDb2dVertex
 10
0.106281
 20
-17.162432
 30
0.0
  0
VERTEX
  5
1A3
100
AcDbEntity
  8
EMBLEM
 62
     7
100
AcDbVertex
100
AcDb2dVertex
 10
0.121784
 20
6.313137
 30
0.0
  0
SEQEND
  5
1A4
100
AcDbEntity
  8
EMBLEM
 62
     7
  0
SPLINE
  5
19D
100
AcDbEntity
  8
EMBLEM
 62
     7
100
AcDbSpline
210
0.0
220
0.0
230
1.0
 70
     8
 71
     3
 72
    20
 73
    16
 74
     0
 42
0.00000001
 43
0.00000001
 40
0.0
 40
0.0
 40
0.0
 40
0.0
 40
1.0
 40
1.0
 40
1.0
 40
2.0
 40
2.0
 40
2.0
 40
3.0
 40
3.0
 40
3.0
 40
4.0
 40
4.0
 40
4.0
 40
5.0
 40
5.0
 40
5.0
 40
5.0
 10
-3.289204915364583
 20
6.3131374782986107
 30
0.0
 10
-3.289204915364583
 20
6.3131374782986107
 30
0.0
 10
-2.06964111328125
 20
6.3131374782986107
 30
0.0
 10
-2.06964111328125
 20
6.3131374782986107
 30
0.0
 10
-2.06964111328125
 20
6.3131374782986107
 30
0.0
 10
-2.06964111328125
 20
-12.442306857638888
 30
0.0
 10
-2.06964111328125
 20
-12.442306857638888
 30
0.0
 10
-2.6532402886284721
 20
-12.24765896267361
 30
0.0
 10
-2.6532402886284721
 20
-12.343432617187499
 30
0.0
 10
-3.289204915364583
 20
-12.099519856770833
 30
0.0
 10
-3.289204915364583
 20
-12.099519856770833
 30
0.0
 10
-3.289204915364583
 20
6.3131374782986107
 30
0.0
 10
-3.289204915364583
 20
6.3131374782986107
 30
0.0
 10
-3.289204915364583
 20
6.3131374782986107
 30
0.0
 10
-3.289204915364583
 20
6.3131374782986107
 30
0.0
 10
-3.289204915364583
 20
6.3131374782986107
 30
0.0
  0
POLYLINE
  5
192
100
AcDbEntity
  8
EMBLEM
 62
     7
100
AcDb2dPolyline
 66
     1
 10
0.0
 20
0.0
 30
0.0
 70
     1
  0
VERTEX
  5
193
100
AcDbEntity
  8
EMBLEM
 62
     7
100
AcDbVertex
100
AcDb2dVertex
 10
-1.541508
 20
6.313137
 30
0.0
  0
VERTEX
  5
194
100
AcDbEntity
  8
EMBLEM
 62
     7
100
AcDbVertex
100
AcDb2dVertex
 10
-0.373793
 20
6.313137
 30
0.0
  0
VERTEX
  5
195
100
AcDbEntity
  8
EMBLEM
 62
     7
100
AcDbVertex
100
AcDb2dVertex
 10
-0.389296
 20
-17.1676
 30
0.0
  0
VERTEX
  5
196
100
AcDbEntity
  8
EMBLEM
 62
     7
100
AcDbVertex
100
AcDb2dVertex
 10
-1.571308
 20
-17.1676
 30
0.0
  0
VERTEX
  5
197
100
AcDbEntity
  8
EMBLEM
 62
     7
100
AcDbVertex
100
AcDb2dVertex
 10
-1.571308
 20
-13.537158
 30
0.0
  0
VERTEX
  5
198
100
AcDbEntity
  8
EMBLEM
 62
     7
100
AcDbVertex
100
AcDb2dVertex
 10
-1.321022
 20
-13.412101
 30
0.0
  0
VERTEX
  5
199
100
AcDbEntity
  8
EMBLEM
 62
     7
100
AcDbVertex
100
AcDb2dVertex
 10
-1.571308
 20
-12.80542
 30
0.0
  0
VERTEX
  5
19A
100
AcDbEntity
  8
EMBLEM
 62
     7
100
AcDbVertex
100
AcDb2dVertex
 10
-1.541508
 20
-3.331752
 30
0.0
  0
VERTEX
  5
19B
100
AcDbEntity
  8
EMBLEM
 62
     7
100
AcDbVertex
100
AcDb2dVertex
 10
-1.541508
 20
6.313137
 30
0.0
  0
SEQEND
  5
19C
100
AcDbEntity
  8
EMBLEM
 62
     7
  0
SPLINE
  5
191
100
AcDbEntity
  8
EMBLEM
 62
     7
100
AcDbSpline
210
0.0
220
0.0
230
1.0
 70
     8
 71
     3
 72
    23
 73
    19
 74
     0
 42
0.00000001
 43
0.00000001
 40
0.0
 40
0.0
 40
0.0
 40
0.0
 40
1.0
 40
1.0
 40
1.0
 40
2.0
 40
2.0
 40
2.0
 40
3.0
 40
3.0
 40
3.0
 40
4.0
 40
4.0
 40
4.0
 40
5.0
 40
5.0
 40
5.0
 40
6.0
 40
6.0
 40
6.0
 40
6.0
 10
-2.9464179144965277
 20
-15.851917860243054
 30
0.0
 10
-2.9958550347222221
 20
-14.536235894097221
 30
0.0
 10
-2.4108778211805553
 20
-13.952292209201387
 30
0.0
 10
-2.06964111328125
 20
-13.757988823784721
 30
0.0
 10
-2.06964111328125
 20
-13.757988823784721
 30
0.0
 10
-2.06964111328125
 20
-17.167599826388887
 30
0.0
 10
-2.06964111328125
 20
-17.167599826388887
 30
0.0
 10
-2.06964111328125
 20
-17.167599826388887
 30
0.0
 10
-3.2852430555555552
 20
-17.170355902777775
 30
0.0
 10
-3.2852430555555552
 20
-17.170355902777775
 30
0.0
 10
-3.2852430555555552
 20
-17.170355902777775
 30
0.0
 10
-3.289204915364583
 20
-16.046221245659719
 30
0.0
 10
-3.289204915364583
 20
-16.046221245659719
 30
0.0
 10
-3.289204915364583
 20
-16.046221245659719
 30
0.0
 10
-2.9464179144965277
 20
-15.851917860243054
 30
0.0
 10
-2.9464179144965277
 20
-15.851917860243054
 30
0.0
 10
-2.9464179144965277
 20
-15.851917860243054
 30
0.0
 10
-2.9464179144965277
 20
-15.851917860243054
 30
0.0
 10
-2.9464179144965277
 20
-15.851917860243054
 30
0.0
  0
ENDBLK
  5
1C1
100
AcDbEntity
  8
EMBLEM
100
AcDbBlockEnd
  0
ENDSEC
  0
SECTION
  2
ENTITIES
  0
INSERT
  5
18F
100
AcDbEntity
  8
EMBLEM
 62
     7
100
AcDbBlockReference
  2
AI9-BLK5
 10
62.910716
 20
49.081242
 30
0.0
  0
INSERT
  5
147
100
AcDbEntity
  8
EMBLEM
 62
     7
100
AcDbBlockReference
  2
AI9-BLK4
 10
59.427725
 20
51.939379
 30
0.0
  0
INSERT
  5
2A
100
AcDbEntity
  8
EMBLEM
 62
     7
100
AcDbBlockReference
  2
AI9-BLK1
 10
65.273105
 20
48.306268
 30
0.0
  0
ENDSEC
  0
SECTION
  2
OBJECTS
  0
DICTIONARY
  5
19
100
AcDbDictionary
280
     0
281
     1
  3
ACAD_GROUP
350
1A
  3
ACAD_MLINESTYLE
350
1B
  3
ACAD_LAYOUT
350
1E
  3
ACAD_PLOTSETTINGS
350
22
  3
ACAD_PLOTSTYLENAME
350
1F
  3
ACAD_WIPEOUT_VARS
350
23
  0
DICTIONARY
  5
1A
102
{ACAD_REACTORS
330
19
102
}
100
AcDbDictionary
280
     0
281
     1
  0
DICTIONARY
  5
1B
102
{ACAD_REACTORS
330
19
102
}
100
AcDbDictionary
280
     0
281
     1
  3
Standard
350
1C
  0
MLINESTYLE
  5
1C
102
{ACAD_REACTORS
330
1B
102
}
100
AcDbMlineStyle
  2
Standard
 70
     0
  3

 62
     0
 51
90.0
 52
90.0
 71
     2
 49
0.5
 62
   256
  6
ByLayer
 49
-0.5
 62
   256
  6
ByLayer
  0
ACDBDICTIONARYWDFLT
  5
1F
102
{ACAD_REACTORS
330
19
102
}
100
AcDbDictionary
281
     1
  3
Normal
350
1D
100
AcDbDictionaryWithDefault
340
1D
  0
ACDBPLACEHOLDER
  5
1D
102
{ACAD_REACTORS
330
1F
102
}
  0
LAYOUT
  5
20
102
{ACAD_REACTORS
330
1E
102
}
100
AcDbPlotSettings
  1

  2

  4

  6

 40
0.0
 41
0.0
 42
0.0
 43
0.0
 44
0.0
 45
0.0
 46
0.0
 47
0.0
 48
0.0
 49
0.0
140
0.0
141
0.0
142
1.0
143
1.0
 70
  1024
 72
     0
 73
     0
 74
     0
  7

 75
     0
147
1.0
148
0.0
149
0.0
100
AcDbLayout
  1
Model
 70
     0
 71
     0
 10
0.0
 20
0.0
 11
0.0
 21
0.0
 12
0.0
 22
0.0
 32
0.0
 14
0.0
 24
0.0
 34
0.0
 15
0.0
 25
0.0
 35
0.0
146
0.0
 13
0.0
 23
0.0
 33
0.0
 16
0.0
 26
0.0
 36
0.0
 17
0.0
 27
0.0
 37
0.0
 76
     0
330
A
331
0
345
0
346
0
  0
LAYOUT
  5
21
102
{ACAD_REACTORS
330
1E
102
}
100
AcDbPlotSettings
  1

  2

  4

  6

 40
0.0
 41
0.0
 42
0.0
 43
0.0
 44
0.0
 45
0.0
 46
0.0
 47
0.0
 48
0.0
 49
0.0
140
0.0
141
0.0
142
1.0
143
1.0
 70
     0
 72
     0
 73
     0
 74
     0
  7

 75
     0
147
1.0
148
0.0
149
0.0
100
AcDbLayout
  1
Layout1
 70
     0
 71
     0
 10
0.0
 20
0.0
 11
0.0
 21
0.0
 12
0.0
 22
0.0
 32
0.0
 14
0.0
 24
0.0
 34
0.0
 15
0.0
 25
0.0
 35
0.0
146
0.0
 13
0.0
 23
0.0
 33
0.0
 16
0.0
 26
0.0
 36
0.0
 17
0.0
 27
0.0
 37
0.0
 76
     0
330
B
331
0
345
0
346
0
  0
DICTIONARY
  5
1E
102
{ACAD_REACTORS
330
19
102
}
100
AcDbDictionary
280
     0
281
     1
  3
Layout1
350
21
  3
Model
350
20
  0
DICTIONARY
  5
22
102
{ACAD_REACTORS
330
19
102
}
100
AcDbDictionary
280
     0
281
     1
  0
WIPEOUTVARIABLES
  5
23
100
AcDbWipeoutVariables
 70
     1
  0
ENDSEC
  0
EOF
